Chord Gitar/Kunci Gitar WALI EMANG DASAR [INTERLUDE TAB]

Chord Gitar/Kunci Gitar WALI EMANG DASAR [INTERLUDE TAB]

'E-10-9-10--------9-10-9-10--------------
B---------12---12-----------------------
G------------11-------------12b----------
D----------------------------------------
A----------------------------------------
E----------------------------------------

E-9-8-9--------8-9-8-9-----------------
B--------11---11---------11b--------------
G----------10----------------------------
D----------------------------------------
A----------------------------------------
E----------------------------------------

E-8-7-8---------7-8-7-8----------------
B--------10---10----------10b-----------
G-----------9---------------------------
D----------------------------------------
A----------------------------------------
E----------------------------------------

E-7-6-7--------6-7-6h9-6h9-6h9-6h9---
B--------9---9--------------------------
G----------8----------------------------
D----------------------------------------
A----------------------------------------
E----------------------------------------

E-10-9-10--------9-10-9-10--------------
B---------12---12-----------------------
G------------11-------------12b----------
D----------------------------------------
A----------------------------------------
E----------------------------------------

E-9-8-9--------8-9-8-9-----------------
B--------11---11---------11b--------------
G----------10----------------------------
D----------------------------------------
A----------------------------------------
E----------------------------------------

E-8-7-8---------7-8-7-8----------------
B--------10---10----------10b-----------
G-----------9---------------------------
D----------------------------------------
A----------------------------------------
E----------------------------------------

E-7-6-7--------6-b7--6-9--9-12b~~-----
B--------9---9------------11-------------
G----------8----------------------------
D----------------------------------------
A----------------------------------------
E----------------------------------------



Interlude Tab: by heri/dengseng
heri_andra@yahoo.com or
http://heriandra.wen.ru'

Itulah Chord Gitar/Kunci Gitar WALI EMANG DASAR [INTERLUDE TAB], Semoga Chord Gitar/Kunci Gitar WALI EMANG DASAR [INTERLUDE TAB] cocok untuk kamu dan suaramu tentunya semoga Chord Gitar/Kunci Gitar WALI EMANG DASAR [INTERLUDE TAB] bermanfaat bagi kamu dan bisa dimainkan dengan lancar ya, dibawah ini kami menyediakan Chord Gitar/Kunci Gitar selain WALI EMANG DASAR [INTERLUDE TAB] Kami bisa pilih chord kunci gitar yang relate dengan WALI EMANG DASAR [INTERLUDE TAB] ataupun random chord yang tersedia dan bisa gunakan kolom pencarian untuk mencari Chord Gitar/Kunci Gitar yang kamu inginkan, semoga kami dapat menghadirkan Chord Gitar/Kunci Gitar yang lengkap, bagus dan terupdate untuk kamu jangan lupa untuk membagikan Chord Gitar/Kunci Gitar WALI EMANG DASAR [INTERLUDE TAB], terimakasih.