Chord Gitar/Kunci Gitar UNGU TERCIPTA UNTUKKU [TAB]

Chord Gitar/Kunci Gitar UNGU TERCIPTA UNTUKKU [TAB]

'Intro:

e|4-----4-2---7--0-----0-0-4--5-----------0----------0---0---2---0-2---|
B|----5-----4--------2------4-2-----2-0-0---0------0---0---0---0-----4~|
G|4-4------------1-1-----1-4------2---1-------2--2-1-------------------|
D|------------------------------2--------------------------------------|
A|---------------------------------------------------------------------|
E|---------------------------------------------------------------------|

Guitar Solo:

e|------------7-8~12~---12-12-14~14h16------------
B|-------9-10--------13~---------------12~9h10-9~-
G|-----9------------------------------------------
D|9-10--------------------------------------------
A|------------------------------------------------
E|------------------------------------------------

e|------------7-8~12~---12~11h12-11------|
B|-------9-10--------13~-----------11-11-|
G|-----9---------------------------------|
D|9-10-----------------------------------|
A|---------------------------------------|
E|---------------------------------------|

e|14-12-11-------------14-12-11-----------------|
B|---------14-12----------------14-12-----------|(pick very fast)
G|---------------14-13----------------14-13-13~-|
D|---------------------------------------------|
A|---------------------------------------------|
E|---------------------------------------------|'

Itulah Chord Gitar/Kunci Gitar UNGU TERCIPTA UNTUKKU [TAB], Semoga Chord Gitar/Kunci Gitar UNGU TERCIPTA UNTUKKU [TAB] cocok untuk kamu dan suaramu tentunya semoga Chord Gitar/Kunci Gitar UNGU TERCIPTA UNTUKKU [TAB] bermanfaat bagi kamu dan bisa dimainkan dengan lancar ya, dibawah ini kami menyediakan Chord Gitar/Kunci Gitar selain UNGU TERCIPTA UNTUKKU [TAB] Kami bisa pilih chord kunci gitar yang relate dengan UNGU TERCIPTA UNTUKKU [TAB] ataupun random chord yang tersedia dan bisa gunakan kolom pencarian untuk mencari Chord Gitar/Kunci Gitar yang kamu inginkan, semoga kami dapat menghadirkan Chord Gitar/Kunci Gitar yang lengkap, bagus dan terupdate untuk kamu jangan lupa untuk membagikan Chord Gitar/Kunci Gitar UNGU TERCIPTA UNTUKKU [TAB], terimakasih.