Chord Gitar/Kunci Gitar UNGU DISINI UNTUKMU [INTERLUDE TAB]

Chord Gitar/Kunci Gitar UNGU DISINI UNTUKMU [INTERLUDE TAB]

'E||--------17~-----------15~----|---------17~-----------15~----|
B||--15-----------15~-----------|--15~-----------15~-----------|
G||-----------------------------|------------------------------|
D||-----------------------------|------------------------------|
A||-----------------------------|------------------------------|
E||-----------------------------|------------------------------|

--------14~------------------|---------------------------------|
---------------15~----10~----|--10h~-12~----10~----8~----7~----|
-----------------------------|---------------------------------|
-----------------------------|---------------------------------|
-----------------------------|---------------------------------|
-----------------------------|---------------------------------|

------------------------10~----|------------------14b~----|
-------7h~-8~----10~-----------|--------------------------|
-------------------------------|--------------------------|
-------------------------------|--------------------------|
-------------------------------|--------------------------|
-------------------------------|--------------------------|

--14b~----14b~----14b~----14b~----|--14b~----14b~----14b~---------|
----------------------------------|-------------------------------|
----------------------------------|-------------------------------|
----------------------------------|-------------------------------|
----------------------------------|-------------------------------|
----------------------------------|-------------------------------|

---------17~-----------15~----|---------17~-----------15~----|
--15~-----------15~-----------|--15~-----------15~-----------|
------------------------------|------------------------------|
------------------------------|------------------------------|
------------------------------|------------------------------|
------------------------------|------------------------------|

--------14~------------------|---------------------------------|
---------------15~----10~----|--10h~-12~----10~----8~----7~----|
-----------------------------|---------------------------------|
-----------------------------|---------------------------------|
-----------------------------|---------------------------------|
-----------------------------|---------------------------------|

------------------------10~----|-----------------------|
--L----7h~-8~----10~-----------|-----------------------|
-------------------------------|-----------------------|
-------------------------------|-----------------------|
-------------------------------|-----------------------|
-------------------------------|-----------------------|

--15~----15~--14~----14~---------|------------------------14~-----------||
--------------------------17~----|--17~--15~----14~--15~---------12~----||
---------------------------------|--------------------------------------||
---------------------------------|--------------------------------------||
---------------------------------|--------------------------------------||
---------------------------------|--------------------------------------||'

Itulah Chord Gitar/Kunci Gitar UNGU DISINI UNTUKMU [INTERLUDE TAB], Semoga Chord Gitar/Kunci Gitar UNGU DISINI UNTUKMU [INTERLUDE TAB] cocok untuk kamu dan suaramu tentunya semoga Chord Gitar/Kunci Gitar UNGU DISINI UNTUKMU [INTERLUDE TAB] bermanfaat bagi kamu dan bisa dimainkan dengan lancar ya, dibawah ini kami menyediakan Chord Gitar/Kunci Gitar selain UNGU DISINI UNTUKMU [INTERLUDE TAB] Kami bisa pilih chord kunci gitar yang relate dengan UNGU DISINI UNTUKMU [INTERLUDE TAB] ataupun random chord yang tersedia dan bisa gunakan kolom pencarian untuk mencari Chord Gitar/Kunci Gitar yang kamu inginkan, semoga kami dapat menghadirkan Chord Gitar/Kunci Gitar yang lengkap, bagus dan terupdate untuk kamu jangan lupa untuk membagikan Chord Gitar/Kunci Gitar UNGU DISINI UNTUKMU [INTERLUDE TAB], terimakasih.