Chord Gitar/Kunci Gitar THE CHANGCUTERS RACUN DUNIA

Chord Gitar/Kunci Gitar THE CHANGCUTERS RACUN DUNIA

'Intro: D… | D   Bm (3x) G   A
         
(*)  
  D  Bm
Racun...
  D  Bm
Racun...
  D  Bm
Racun...
  G            A
Mati laju darahku
             D
Memang kau racun 

  D   Bm
Ampun...
  D   Bm
Ampun...
  D   Bm
Ampun...
   G              A
Takluk sudah hebatku 
   G              A
Takluk sudah hebatku 
             D
Memang kau racun 

[reff]
G    Gm       D
 Wanita racun dunia 
G        Gm     A  
 Karna dia  butakan smua


  G              A
Hilang akal sehatku
  G              A
Hilang akal sehatku
G             A
Hilang akal sehatku
             D
Memang kau racun

[Interlude] D Bm 3x 
            G A 2x D

G    Gm       D
 Wanita racun dunia 
G        Gm     A  
 Karna dia  butakan smua
        Gm       D
Wanita racun dunia
G      Gm     A
 Apa daya itu adanya... wooou...

  G            A
Mati laju darahku 
   G              A
Takluk sudah hebatku 
  G              A
Hilang akal sehatku
  G              A
Hilang akal sehatku 
             D
Memang kau racun...

[Interlude] D Bm 4x

  D   B
Racun... 20x

[Coda] D''The Changcuters
Racun Dunia

guitar 1                              
                         
E||--------------------------------|-------|-------|-------|
B||--------------------------------|-------|-------|-------|
G||--------------------------------|-------|-------|-------|
D||--------------------------------|-------|-------|-------|
A||--------------------------------|-------|-------|-------|
E||--------------------------------|-------|-------|-------|


  ^  ^  ^  ^  ^  ^  ^  ^     ^  ^  ^  ^  ^  ^  ^  ^   
  E  E  E  E  E  E  E  E     E  E  E  E  E  E  E  E   
--2--2--2--2--2--2--2--2--|--2--2--2--2--2--2--2--2--|
--3--3--3--3--3--3--3--3--|--3--3--3--3--3--3--3--3--|
--2--2--2--2--2--2--2--2--|--2--2--2--2--2--2--2--2--|
--0--0--0--0--0--0--0--0--|--0--0--0--0--0--0--0--0--|
--------------------------|--------------------------|
--------------------------|--------------------------|


  ^  ^  ^  ^  ^  ^  ^  ^     ^  ^  ^  ^  ^  ^  ^  ^   
  E  E  E  E  E  E  E  E     E  E  E  E  E  E  E  E   
--2--2--2--2--2--2--2--2--|--2--2--2--2--2--2--2--2--|
--3--3--3--3--3--3--3--3--|--3--3--3--3--3--3--3--3--|
--2--2--2--2--2--2--2--2--|--2--2--2--2--2--2--2--2--|
--0--0--0--0--0--0--0--0--|--0--0--0--0--0--0--0--0--|
--------------------------|--------------------------|
--------------------------|--------------------------|


  ^  ^  ^  ^  ^  ^  ^  ^     ^  ^  ^  ^  ^  ^  ^  ^   
  E  E  E  E  E  E  E  E     E  E  E  E  E  E  E  E   
--2--2--2--2--2--2--2--2--|--2--2--2--2--2--2--2--2--|
--3--3--3--3--3--3--3--3--|--3--3--3--3--3--3--3--3--|
--2--2--2--2--2--2--2--2--|--2--2--2--2--2--2--2--2--|
--0--0--0--0--0--0--0--0--|--0--0--0--0--0--0--0--0--|
--------------------------|--------------------------|
--------------------------|--------------------------|


  ^  ^  ^  ^  ^  ^  ^  ^                                              
  E  E  E  E  E  E  E  E     Q    H.              Q    Q.     Q.      
--2--2--2--2--2--2--2--2--|--2-----------------|-------5------5------|
--3--3--3--3--3--3--3--3--|--3-----------------|-------7------7------|
--2--2--2--2--2--2--2--2--|--2-----------------|-------7------7------|
--0--0--0--0--0--0--0--0--|--------------------|---------------------|
--------------------------|--------------------|---------------------|
--------------------------|--------------------|---------------------|


  Q    Q.     Q.        Q    Q.     Q.        Q    Q.     Q.      
-------7------7------|-------5------5------|-------7------7------|
-------8------8------|-------7------7------|-------8------8------|
-------7------7------|-------7------7------|-------7------7------|
---------------------|---------------------|---------------------|
---------------------|---------------------|---------------------|
---------------------|---------------------|---------------------|


  Q    Q.     Q.        Q    Q.     Q.        E  E  E  E  E  E  E  E   
-------5------5------|-------7------7------|--7--7--7--7--7--7--7--7--|
-------7------7------|-------8------8------|--8--8--8--8--8--8--8--8--|
-------7------7------|-------7------7------|--7--7--7--7--7--7--7--7--|
---------------------|---------------------|--------------------------|
---------------------|---------------------|--------------------------|
---------------------|---------------------|--------------------------|


   E   E   E   E   E   E   E   E      Q    H.              Q    Q.     Q.      
---9---9---9---9---9---9---9---9--|---9-----------------|-------5------5------|
--10--10--10--10--10--10--10--10--|--10-----------------|-------7------7------|
---9---9---9---9---9---9---9---9--|---9-----------------|-------7------7------|
----------------------------------|---------------------|---------------------|
----------------------------------|---------------------|---------------------|
----------------------------------|---------------------|---------------------|


  Q    Q.     Q.        Q    Q.     Q.        Q    Q.     Q.      
-------7------7------|-------5------5------|-------7------7------|
-------8------8------|-------7------7------|-------8------8------|
-------7------7------|-------7------7------|-------7------7------|
---------------------|---------------------|---------------------|
---------------------|---------------------|---------------------|
---------------------|---------------------|---------------------|


  Q    Q.     Q.        Q    Q.     Q.        E  E  E  E  E  E  E  E   
-------5------5------|-------7------7------|--7--7--7--7--7--7--7--7--|
-------7------7------|-------8------8------|--8--8--8--8--8--8--8--8--|
-------7------7------|-------7------7------|--7--7--7--7--7--7--7--7--|
---------------------|---------------------|--------------------------|
---------------------|---------------------|--------------------------|
---------------------|---------------------|--------------------------|


   E   E   E   E   E   E   E   E     E  E  E  E  E  E  E  E   
---9---9---9---9---9---9---9---9--|--5--5--5--5--5--5--5--5--|
--10--10--10--10--10--10--10--10--|--7--7--7--7--7--7--7--7--|
---9---9---9---9---9---9---9---9--|--7--7--7--7--7--7--7--7--|
----------------------------------|--------------------------|
----------------------------------|--------------------------|
----------------------------------|--------------------------|


  Q    H.              Q    Q.     Q.        Q    Q.     Q.      
--5-----------------|-------5------5------|-------7------7------|
--7-----------------|-------7------7------|-------8------8------|
--7-----------------|-------7------7------|-------7------7------|
--------------------|---------------------|---------------------|
--------------------|---------------------|---------------------|
--------------------|---------------------|---------------------|


  Q    Q.     Q.        Q    Q.     Q.        Q    Q.     Q.      
-------5------5------|-------7------7------|-------5------5------|
-------7------7------|-------8------8------|-------7------7------|
-------7------7------|-------7------7------|-------7------7------|
---------------------|---------------------|---------------------|
---------------------|---------------------|---------------------|
---------------------|---------------------|---------------------|


  Q    Q.     Q.        E  E  E  E  E  E  E  E   
-------7------7------|--7--7--7--7--7--7--7--7--|
-------8------8------|--8--8--8--8--8--8--8--8--|
-------7------7------|--7--7--7--7--7--7--7--7--|
---------------------|--------------------------|
---------------------|--------------------------|
---------------------|--------------------------|


   E   E   E   E   E   E   E   E     E  E  E  E  E  E  E  E   
---9---9---9---9---9---9---9---9--|--7--7--7--7--7--7--7--7--|
--10--10--10--10--10--10--10--10--|--8--8--8--8--8--8--8--8--|
---9---9---9---9---9---9---9---9--|--7--7--7--7--7--7--7--7--|
----------------------------------|--------------------------|
----------------------------------|--------------------------|
----------------------------------|--------------------------|


   E   E   E   E   E   E   E   E     E  E  E  E  E  E  E  E   
---9---9---9---9---9---9---9---9--|--5--5--5--5--5--5--5--5--|
--10--10--10--10--10--10--10--10--|--7--7--7--7--7--7--7--7--|
---9---9---9---9---9---9---9---9--|--7--7--7--7--7--7--7--7--|
----------------------------------|--------------------------|
----------------------------------|--------------------------|
----------------------------------|--------------------------|


  Q    H.              E  E  E  E  E  E  E  E     E  E  E  E  E  E  E  E   
--5-----------------|--7--7--7--7--7--7--7--7--|--7--7--7--7--7--7--7--7--|
--7-----------------|--8--8--8--8--8--8--8--8--|--8--8--8--8--8--8--8--8--|
--7-----------------|--7--7--7--7--7--7--7--7--|--7--7--7--7--7--7--7--7--|
--------------------|--------------------------|--------------------------|
--------------------|--------------------------|--------------------------|
--------------------|--------------------------|--------------------------|


  E  E  E  E  E  E  E  E     E  E  E  E  E  E  E  E   
--5--5--5--5--5--5--5--5--|--5--5--5--5--5--5--5--5--|
--7--7--7--7--7--7--7--7--|--7--7--7--7--7--7--7--7--|
--7--7--7--7--7--7--7--7--|--7--7--7--7--7--7--7--7--|
--------------------------|--------------------------|
--------------------------|--------------------------|
--------------------------|--------------------------|


  E  E  E  E  E  E  E  E     E  E  E  E  E  E  E  E   
--7--7--7--7--7--7--7--7--|--7--7--7--7--7--7--7--7--|
--8--8--8--8--8--8--8--8--|--8--8--8--8--8--8--8--8--|
--7--7--7--7--7--7--7--7--|--7--7--7--7--7--7--7--7--|
--------------------------|--------------------------|
--------------------------|--------------------------|
--------------------------|--------------------------|


   E   E   E   E   E   E   E   E      E   E   E   E   E   E   E   E   
---9---9---9---9---9---9---9---9--|---9---9---9---9---9---9---9---9--|
--10--10--10--10--10--10--10--10--|--10--10--10--10--10--10--10--10--|
---9---9---9---9---9---9---9---9--|---9---9---9---9---9---9---9---9--|
----------------------------------|----------------------------------|
----------------------------------|----------------------------------|
----------------------------------|----------------------------------|


  Q    Q.     Q.        Q    Q.     Q.        Q    Q.     Q.      
-------5------5------|-------7------7------|-------5------5------|
-------7------7------|-------8------8------|-------7------7------|
-------7------7------|-------7------7------|-------7------7------|
---------------------|---------------------|---------------------|
---------------------|---------------------|---------------------|
---------------------|---------------------|---------------------|


  Q    Q.     Q.        Q    Q.     Q.        Q    Q.     Q.      
-------7------7------|-------5------5------|-------7------7------|
-------8------8------|-------7------7------|-------8------8------|
-------7------7------|-------7------7------|-------7------7------|
---------------------|---------------------|---------------------|
---------------------|---------------------|---------------------|
---------------------|---------------------|---------------------|


  E  E  E  E  E  E  E  E      E   E   E   E   E   E   E   E   
--7--7--7--7--7--7--7--7--|---9---9---9---9---9---9---9---9--|
--8--8--8--8--8--8--8--8--|--10--10--10--10--10--10--10--10--|
--7--7--7--7--7--7--7--7--|---9---9---9---9---9---9---9---9--|
--------------------------|----------------------------------|
--------------------------|----------------------------------|
--------------------------|----------------------------------|


  E  E  E  E  E  E  E  E      E   E   E   E   E   E   E   E   
--7--7--7--7--7--7--7--7--|---9---9---9---9---9---9---9---9--|
--8--8--8--8--8--8--8--8--|--10--10--10--10--10--10--10--10--|
--7--7--7--7--7--7--7--7--|---9---9---9---9---9---9---9---9--|
--------------------------|----------------------------------|
--------------------------|----------------------------------|
--------------------------|----------------------------------|


  E  E  E  E  E  E  E  E      E   E   E   E   E   E   E   E   
--7--7--7--7--7--7--7--7--|---9---9---9---9---9---9---9---9--|
--8--8--8--8--8--8--8--8--|--10--10--10--10--10--10--10--10--|
--7--7--7--7--7--7--7--7--|---9---9---9---9---9---9---9---9--|
--------------------------|----------------------------------|
--------------------------|----------------------------------|
--------------------------|----------------------------------|


  E  E  E  E  E  E  E  E     Q    H.               Q.      Q     E  E  E   
--5--5--5--5--5--5--5--5--|--5-----------------|--------------------------|
--7--7--7--7--7--7--7--7--|--7-----------------|----------10--------------|
--7--7--7--7--7--7--7--7--|--7-----------------|--11------------11--9--7--|
--------------------------|--------------------|--------------------------|
--------------------------|--------------------|--------------------------|
--------------------------|--------------------|--------------------------|


  E  Q    Q    E  E  E      Q.      Q     E  E  E   
------------------------|--------------------------|
------------------------|----------10--------------|
--9--7------------7--9--|--11------------11--9--7--|
----------9----7--------|--------------------------|
------------------------|--------------------------|
------------------------|--------------------------|


   E.   E.   E   E.   E.  E      E   E   E   E   E   E   E   E   
-----------------------------|----------------------------------|
--12---10-------10-----------|--12--10------12--10------12--10--|
------------11-------11---9--|----------11----------11----------|
-----------------------------|----------------------------------|
-----------------------------|----------------------------------|
-----------------------------|----------------------------------|


   E   E   E   E   E   E  E  E     E  E  E   E  E  E  E  E   
--------------------------------|---------------------------|
------12--10------10------------|---------------------------|
--11----------11------11--9--7--|-----7--9--11--9--7--9--7--|
--------------------------------|--9------------------------|
--------------------------------|---------------------------|
--------------------------------|---------------------------|


                                ^  ^  ^  ^    ^         ^  ^  ^  ^    ^       
   E.   E.   E   E.   E.  E     E  E  E  Q    Q.        E  E  E  Q    Q.      
-----------------------------|-----------------------|--5--5--5--7----5------|
--12---10-------10-----------|--3--3--3--5----3------|--5--5--5--7----5------|
------------11-------11---9--|--4--4--4--4----4------|--6--6--6--6----6------|
-----------------------------|--5--5--5--5----5------|--7--7--7--7----7------|
-----------------------------|-----------------------|-----------------------|
-----------------------------|-----------------------|-----------------------|


  E  E  E  E  E  E  E  E     E   E.   E.   Q     Q     
--5--5--5--5--5--5--5--5--|--5--13---12---10----------|
--7--7--7--7--7--7--7--7--|--7------------------12----|
--7--7--7--7--7--7--7--7--|--7------------------------|
--------------------------|---------------------------|
--------------------------|---------------------------|
--------------------------|---------------------------|


  E  E  E  E  E  E  E  E     E  E  E  E  E  E  E  E   
--7--7--7--7--7--7--7--7--|--7--7--7--7--7--7--7--7--|
--8--8--8--8--8--8--8--8--|--8--8--8--8--8--8--8--8--|
--7--7--7--7--7--7--7--7--|--7--7--7--7--7--7--7--7--|
--------------------------|--------------------------|
--------------------------|--------------------------|
--------------------------|--------------------------|


  E  E  E  E  E  E  E  E     E  E  E  E  E  E  E  E   
--5--5--5--5--5--5--5--5--|--5--5--5--5--5--5--5--5--|
--7--7--7--7--7--7--7--7--|--7--7--7--7--7--7--7--7--|
--7--7--7--7--7--7--7--7--|--7--7--7--7--7--7--7--7--|
--------------------------|--------------------------|
--------------------------|--------------------------|
--------------------------|--------------------------|


  E  E  E  E  E  E  E  E     E  E  E  E  E  E  E  E   
--7--7--7--7--7--7--7--7--|--7--7--7--7--7--7--7--7--|
--8--8--8--8--8--8--8--8--|--8--8--8--8--8--8--8--8--|
--7--7--7--7--7--7--7--7--|--7--7--7--7--7--7--7--7--|
--------------------------|--------------------------|
--------------------------|--------------------------|
--------------------------|--------------------------|


   E   E   E   E   E   E   E   E      E   E   E   E   E.   E.  E   
---9---9---9---9---9---9---9---9--|---9---9---9---9---9----9---8--|
--10--10--10--10--10--10--10--10--|--10--10--10--10--10---10---9--|
---9---9---9---9---9---9---9---9--|---9---9---9---9---9----9---8--|
----------------------------------|-------------------------------|
----------------------------------|-------------------------------|
----------------------------------|-------------------------------|


  E  E  E  E  E  E  E  E     E  E  E  E  E  E  E  E   
--7--7--7--7--7--7--7--7--|--7--7--7--7--7--7--7--7--|
--8--8--8--8--8--8--8--8--|--8--8--8--8--8--8--8--8--|
--7--7--7--7--7--7--7--7--|--7--7--7--7--7--7--7--7--|
--------------------------|--------------------------|
--------------------------|--------------------------|
--------------------------|--------------------------|


  E  E  E  E  E  E  E  E     E  E  E  E  E  E  E  E   
--5--5--5--5--5--5--5--5--|--5--5--5--5--5--5--5--5--|
--7--7--7--7--7--7--7--7--|--7--7--7--7--7--7--7--7--|
--7--7--7--7--7--7--7--7--|--7--7--7--7--7--7--7--7--|
--------------------------|--------------------------|
--------------------------|--------------------------|
--------------------------|--------------------------|


  E  E  E  E  E  E  E  E     E  E  E  E  E  E  E  E   
--7--7--7--7--7--7--7--7--|--7--7--7--7--7--7--7--7--|
--8--8--8--8--8--8--8--8--|--8--8--8--8--8--8--8--8--|
--7--7--7--7--7--7--7--7--|--7--7--7--7--7--7--7--7--|
--------------------------|--------------------------|
--------------------------|--------------------------|
--------------------------|--------------------------|


   E   E   E   E   E   E   E   E      E   E   E   E   E   E   E   E   
---9---9---9---9---9---9---9---9--|---9---9---9---9---9---9---9---9--|
--10--10--10--10--10--10--10--10--|--10--10--10--10--10--10--10--10--|
---9---9---9---9---9---9---9---9--|---9---9---9---9---9---9---9---9--|
----------------------------------|----------------------------------|
----------------------------------|----------------------------------|
----------------------------------|----------------------------------|


   E   E   E   E   E   E   E   E      Q    H.              Q    Q.     Q.      
---9---9---9---9---9---9---9---9--|---9-----------------|-------5------5------|
--10--10--10--10--10--10--10--10--|--10-----------------|-------7------7------|
---9---9---9---9---9---9---9---9--|---9-----------------|-------7------7------|
----------------------------------|---------------------|---------------------|
----------------------------------|---------------------|---------------------|
----------------------------------|---------------------|---------------------|


  Q    Q.     Q.        Q    Q.     Q.        Q    Q.     Q.      
-------7------7------|-------5------5------|-------7------7------|
-------8------8------|-------7------7------|-------8------8------|
-------7------7------|-------7------7------|-------7------7------|
---------------------|---------------------|---------------------|
---------------------|---------------------|---------------------|
---------------------|---------------------|---------------------|


  Q    Q.     Q.        Q    Q.     Q.        E  E  E  E  E  E  E  E   
-------5------5------|-------7------7------|--7--7--7--7--7--7--7--7--|
-------7------7------|-------8------8------|--8--8--8--8--8--8--8--8--|
-------7------7------|-------7------7------|--7--7--7--7--7--7--7--7--|
---------------------|---------------------|--------------------------|
---------------------|---------------------|--------------------------|
---------------------|---------------------|--------------------------|


   E   E   E   E   E   E   E   E     E  E  E  E  E  E  E  E   
---9---9---9---9---9---9---9---9--|--7--7--7--7--7--7--7--7--|
--10--10--10--10--10--10--10--10--|--8--8--8--8--8--8--8--8--|
---9---9---9---9---9---9---9---9--|--7--7--7--7--7--7--7--7--|
----------------------------------|--------------------------|
----------------------------------|--------------------------|
----------------------------------|--------------------------|


   E   E   E   E   E   E   E   E     E  E  E  E  E  E  E  E   
---9---9---9---9---9---9---9---9--|--7--7--7--7--7--7--7--7--|
--10--10--10--10--10--10--10--10--|--8--8--8--8--8--8--8--8--|
---9---9---9---9---9---9---9---9--|--7--7--7--7--7--7--7--7--|
----------------------------------|--------------------------|
----------------------------------|--------------------------|
----------------------------------|--------------------------|


   E   E   E   E   E   E   E   E     E  E  E  E  E  E  E  E   
---9---9---9---9---9---9---9---9--|--7--7--7--7--7--7--7--7--|
--10--10--10--10--10--10--10--10--|--8--8--8--8--8--8--8--8--|
---9---9---9---9---9---9---9---9--|--7--7--7--7--7--7--7--7--|
----------------------------------|--------------------------|
----------------------------------|--------------------------|
----------------------------------|--------------------------|


   E   E   E   E   E   E   E   E     E  E  E  E  E  E  E  E   
---9---9---9---9---9---9---9---9--|--5--5--5--5--5--5--5--5--|
--10--10--10--10--10--10--10--10--|--7--7--7--7--7--7--7--7--|
---9---9---9---9---9---9---9---9--|--7--7--7--7--7--7--7--7--|
----------------------------------|--------------------------|
----------------------------------|--------------------------|
----------------------------------|--------------------------|


  Q    H.                                                            
--5-----------------|---------------|---------------|---------------|
--7-----------------|---------------|---------------|---------------|
--7-----------------|---------------|---------------|---------------|
--------------------|---------------|---------------|---------------|
--------------------|---------------|---------------|---------------|
--------------------|---------------|---------------|---------------|


---------------|---------------|---------------|---------------|---------------|
---------------|---------------|---------------|---------------|---------------|
---------------|---------------|---------------|---------------|---------------|
---------------|---------------|---------------|---------------|---------------|
---------------|---------------|---------------|---------------|---------------|
---------------|---------------|---------------|---------------|---------------|


  E  E  E  E  E  E  E  E     E.  E.  E  H           Q.     H        E   
--------------------------|----------------------|---------------------|
--------------------------|----------------------|---------------------|
-----------------------7--|--9---9---7-----------|--9------7--------L--|
-----------------7--9-----|-------------9--------|---------------------|
--------5--7--9-----------|----------------------|---------------------|
--5--7--------------------|----------------------|---------------------|


  E    E  E  H        E     Q.     Q.     E  E     Q.     Q.     E  E   
-------------------------|----------------------|----------------------|
-------------------------|----------------------|----------------------|
--9s--11--9--7--------L--|----------------------|----------------------|
-------------------------|--9------7---------7--|--9------7---------7--|
-------------------------|----------------9-----|----------------9-----|
-------------------------|----------------------|----------------------|


                                                TP     TP            
  Q.     Q.     E  E     Q.     Q.     E  E     Q.     Q.     E  E   
----------------------|----------------------|----------------------|
----------------------|----------------------|----------------------|
----------------------|----------------------|----------------------|
--9------7---------7--|--9------7---------7--|--9------7---------7--|
----------------9-----|----------------9-----|----------------9-----|
----------------------|----------------------|----------------------|


  TP     TP              TP     TP              TP     TP            
  Q.     Q.     E  E     Q.     Q.     E  E     Q.     Q.     E  E   
----------------------|----------------------|----------------------|
----------------------|----------------------|----------------------|
----------------------|----------------------|----------------------|
--9------7---------7--|--9------7---------7--|--9------7---------7--|
----------------9-----|----------------9-----|----------------9-----|
----------------------|----------------------|----------------------|


  TP     TP              TP     TP              TP     TP            
  Q.     Q.     E  E     Q.     Q.     E  E     Q.     Q.     E  E   
----------------------|----------------------|----------------------|
----------------------|----------------------|----------------------|
----------------------|----------------------|----------------------|
--9------7---------7--|--9------7---------7--|--9------7---------7--|
----------------9-----|----------------9-----|----------------9-----|
----------------------|----------------------|----------------------|


  TP     TP              TP     TP     TP      TP     TP     TP    
  Q.     Q.     E  E     Q.     Q.     Q       Q.     Q.     Q     
----------------------|---------------------|---------------------|
----------------------|--7------5-----------|--7------5-----------|
----------------------|----------------7----|----------------7----|
--9------7---------7--|---------------------|---------------------|
----------------9-----|---------------------|---------------------|
----------------------|---------------------|---------------------|


  TP     TP     TP      TP     TP     TP      TP     TP     TP    
  Q.     Q.     Q       Q.     Q.     Q       Q.     Q.     Q     
---------------------|---------------------|---------------------|
--7------5-----------|--7------5-----------|--7------5-----------|
----------------7----|----------------7----|----------------7----|
---------------------|---------------------|---------------------|
---------------------|---------------------|---------------------|
---------------------|---------------------|---------------------|


  TP     TP     TP      TP     TP     TP      TP     TP     TP    
  Q.     Q.     Q       Q.     Q.     Q       Q.     Q.     Q     
---------------------|---------------------|---------------------|
--7------5-----------|--7------5-----------|--7------5-----------|
----------------7----|----------------7----|----------------7----|
---------------------|---------------------|---------------------|
---------------------|---------------------|---------------------|
---------------------|---------------------|---------------------|


  E  E  E  E  E  E  E  E     E  E  E  E  E  E  E  E   
--5--5--5--5--5--5--5--5--|--7--7--7--7--7--7--7--7--|
--7--7--7--7--7--7--7--7--|--8--8--8--8--8--8--8--8--|
--7--7--7--7--7--7--7--7--|--7--7--7--7--7--7--7--7--|
--------------------------|--------------------------|
--------------------------|--------------------------|
--------------------------|--------------------------|


  E  E  E  E  E  E  E  E     E  E  E  E  E  E  E  E   
--5--5--5--5--5--5--5--5--|--7--7--7--7--7--7--7--7--|
--7--7--7--7--7--7--7--7--|--8--8--8--8--8--8--8--8--|
--7--7--7--7--7--7--7--7--|--7--7--7--7--7--7--7--7--|
--------------------------|--------------------------|
--------------------------|--------------------------|
--------------------------|--------------------------|


  E  E  E  E  E  E  E  E     E  E  E  E  E  E  E  E   
--5--5--5--5--5--5--5--5--|--7--7--7--7--7--7--7--7--|
--7--7--7--7--7--7--7--7--|--8--8--8--8--8--8--8--8--|
--7--7--7--7--7--7--7--7--|--7--7--7--7--7--7--7--7--|
--------------------------|--------------------------|
--------------------------|--------------------------|
--------------------------|--------------------------|


  E  E  E  E  E  E  E  E     E  E  E  E  E  E  E  E   
--5--5--5--5--5--5--5--5--|--7--7--7--7--7--7--7--7--|
--7--7--7--7--7--7--7--7--|--8--8--8--8--8--8--8--8--|
--7--7--7--7--7--7--7--7--|--7--7--7--7--7--7--7--7--|
--------------------------|--------------------------|
--------------------------|--------------------------|
--------------------------|--------------------------|


  E  E  E  E  E  E  E  E     E  E  E  E  E  E  E  E   
--5--5--5--5--5--5--5--5--|--7--7--7--7--7--7--7--7--|
--7--7--7--7--7--7--7--7--|--8--8--8--8--8--8--8--8--|
--7--7--7--7--7--7--7--7--|--7--7--7--7--7--7--7--7--|
--------------------------|--------------------------|
--------------------------|--------------------------|
--------------------------|--------------------------|


  E  E  E  E  E  E  E  E     E  E  E  E  E  E  E  E   
--5--5--5--5--5--5--5--5--|--7--7--7--7--7--7--7--7--|
--7--7--7--7--7--7--7--7--|--8--8--8--8--8--8--8--8--|
--7--7--7--7--7--7--7--7--|--7--7--7--7--7--7--7--7--|
--------------------------|--------------------------|
--------------------------|--------------------------|
--------------------------|--------------------------|


  E  E  E  E  E  E  E  E     E  E  E  E  E  E  E  E   
--5--5--5--5--5--5--5--5--|--7--7--7--7--7--7--7--7--|
--7--7--7--7--7--7--7--7--|--8--8--8--8--8--8--8--8--|
--7--7--7--7--7--7--7--7--|--7--7--7--7--7--7--7--7--|
--------------------------|--------------------------|
--------------------------|--------------------------|
--------------------------|--------------------------|


  E  E  E  E  E  E  E  E     E  E  E  E  E  E  E  E   
--5--5--5--5--5--5--5--5--|--7--7--7--7--7--7--7--7--|
--7--7--7--7--7--7--7--7--|--8--8--8--8--8--8--8--8--|
--7--7--7--7--7--7--7--7--|--7--7--7--7--7--7--7--7--|
--------------------------|--------------------------|
--------------------------|--------------------------|
--------------------------|--------------------------|


  E  E  E  E  E  E  E  E      E   E   E   E   E   E   E   E   
--7--7--7--7--7--7--7--7--|---9---9---9---9---9---9---9---9--|
--8--8--8--8--8--8--8--8--|--10--10--10--10--10--10--10--10--|
--7--7--7--7--7--7--7--7--|---9---9---9---9---9---9---9---9--|
--------------------------|----------------------------------|
--------------------------|----------------------------------|
--------------------------|----------------------------------|


  E  E  E  E  E  E  E  E      E   E   E   E   E   E   E   E   
--7--7--7--7--7--7--7--7--|---9---9---9---9---9---9---9---9--|
--8--8--8--8--8--8--8--8--|--10--10--10--10--10--10--10--10--|
--7--7--7--7--7--7--7--7--|---9---9---9---9---9---9---9---9--|
--------------------------|----------------------------------|
--------------------------|----------------------------------|
--------------------------|----------------------------------|


  E  E  E  E  E  E  E  E      E   E   E   E   E   E   E   E   
--7--7--7--7--7--7--7--7--|---9---9---9---9---9---9---9---9--|
--8--8--8--8--8--8--8--8--|--10--10--10--10--10--10--10--10--|
--7--7--7--7--7--7--7--7--|---9---9---9---9---9---9---9---9--|
--------------------------|----------------------------------|
--------------------------|----------------------------------|
--------------------------|----------------------------------|


  E  E  E  E  E  E  E  E      E   E   E   E   E   E   E   E   
--7--7--7--7--7--7--7--7--|---9---9---9---9---9---9---9---9--|
--8--8--8--8--8--8--8--8--|--10--10--10--10--10--10--10--10--|
--7--7--7--7--7--7--7--7--|---9---9---9---9---9---9---9---9--|
--------------------------|----------------------------------|
--------------------------|----------------------------------|
--------------------------|----------------------------------|


  E  E  E  E  E  E  E  E     E  H.           E     W                 
--5--5--5--5--5--5--5--5--|--5---------------5--|--L----------------|
--7--7--7--7--7--7--7--7--|--7---------------7--|--L----------------|
--7--7--7--7--7--7--7--7--|--7---------------7--|--L----------------|
--------------------------|---------------------|-------------------|
--------------------------|---------------------|-------------------|
--------------------------|---------------------|-------------------|


  W                   W                                      
--L----------------|--L----------------|-------------------||
--L----------------|--L----------------|-------------------||
--L----------------|--L----------------|-------------------||
-------------------|-------------------|-------------------||
-------------------|-------------------|-------------------||
-------------------|-------------------|-------------------||

guitar 2



E||-------|-------|-------|-------|-------|-------|-------|-------|
B||-------|-------|-------|-------|-------|-------|-------|-------|
G||-------|-------|-------|-------|-------|-------|-------|-------|
D||-------|-------|-------|-------|-------|-------|-------|-------|

A||-------|-------|-------|-------|-------|-------|-------|-------|
E||-------|-------|-------|-------|-------|-------|-------|-------|


   ^   ^   ^   ^   ^   ^   ^   ^      ^   ^   ^   ^   ^   ^   ^   ^   
   E   E   E   E   E   E   E   E      E   E   E   E   E   E   E   E   
--10--10--10--10--10--10--10--10--|--10--10--10--10--10--10--10--10--|
--10--10--10--10--10--10--10--10--|--10--10--10--10--10--10--10--10--|
--11--11--11--11--11--11--11--11--|--11--11--11--11--11--11--11--11--|
--12--12--12--12--12--12--12--12--|--12--12--12--12--12--12--12--12--|
----------------------------------|----------------------------------|
----------------------------------|----------------------------------|


   ^   ^   ^   ^   ^   ^   ^   ^                         
   E   E   E   E   E   E   E   E      Q    H.            
--10--10--10--10--10--10--10--10--|--10-----------------|
--10--10--10--10--10--10--10--10--|--10-----------------|
--11--11--11--11--11--11--11--11--|--11-----------------|
--12--12--12--12--12--12--12--12--|---------------------|
----------------------------------|---------------------|
----------------------------------|---------------------|


  Q    E  Q    E  E  E     Q    E  Q    E  E  E     Q    E  Q    E  E  E   
------------------------|------------------------|------------------------|
------------------------|------------------------|------------------------|
------------------------|------------------------|------------------------|
--7----0--7----0--7--0--|--4----0--4----0--4--6--|--7----0--7----0--7--0--|
--5----0--5----0--5--0--|--2----0--2----0--2--4--|--5----0--5----0--5--0--|
------------------------|------------------------|------------------------|


  Q    E  Q    E  E  E     Q    E  Q    E  E  E     Q    E  Q    E  E  E   
------------------------|------------------------|------------------------|
------------------------|------------------------|------------------------|
------------------------|------------------------|------------------------|
--4----0--4----0--4--6--|--7----0--7----0--7--0--|--4----0--4----0--4--6--|
--2----0--2----0--2--4--|--5----0--5----0--5--0--|--2----0--2----0--2--4--|
------------------------|------------------------|------------------------|


  E  E  E  E  E  E  E  E     E  E  E  E  E  E  E  E     Q    H.            
--------------------------|--------------------------|--------------------|
--------------------------|--------------------------|--------------------|
--------------------------|--------------------------|--------------------|
--5--5--5--5--5--5--5--5--|--7--7--7--7--7--7--7--7--|--7-----------------|
--5--5--5--5--5--5--5--5--|--7--7--7--7--7--7--7--7--|--7-----------------|
--3--3--3--3--3--3--3--3--|--5--5--5--5--5--5--5--5--|--5-----------------|


  E  E  E  E  E  E  E  E     E  E  E  E  E  E  E  E   
--------------------------|--------------------------|
--------------------------|--------------------------|
--------------------------|--------------------------|
--7--7--7--7--7--7--7--7--|--4--4--4--4--4--4--4--4--|
--5--5--5--5--5--5--5--5--|--2--2--2--2--2--2--2--2--|
--------------------------|--------------------------|


  E  E  E  E  E  E  E  E     E  E  E  E  E  E  E  E   
--------------------------|--------------------------|
--------------------------|--------------------------|
--------------------------|--------------------------|
--7--7--7--7--7--7--7--7--|--4--4--4--4--4--4--4--4--|
--5--5--5--5--5--5--5--5--|--2--2--2--2--2--2--2--2--|
--------------------------|--------------------------|


  E  E  E  E  E  E  E  E     E  E  E  E  E  E  E  E   
--------------------------|--------------------------|
--------------------------|--------------------------|
--------------------------|--------------------------|
--7--7--7--7--7--7--7--7--|--4--4--4--4--4--4--4--4--|
--5--5--5--5--5--5--5--5--|--2--2--2--2--2--2--2--2--|
--------------------------|--------------------------|


  E  E  E  E  E  E  E  E     E  E  E  E  E  E  E  E   
--------------------------|--------------------------|
--------------------------|--------------------------|
--------------------------|--------------------------|
--5--5--5--5--5--5--5--5--|--7--7--7--7--7--7--7--7--|
--5--5--5--5--5--5--5--5--|--7--7--7--7--7--7--7--7--|
--3--3--3--3--3--3--3--3--|--5--5--5--5--5--5--5--5--|


  E  E  E  E  E  E  E  E     Q    H.              E  E  E  E  E  E  E  E   
--------------------------|--------------------|--------------------------|
--------------------------|--------------------|--------------------------|
--------------------------|--------------------|--------------------------|
--7--7--7--7--7--7--7--7--|--7-----------------|--7--7--7--7--7--7--7--7--|
--5--5--5--5--5--5--5--5--|--5-----------------|--5--5--5--5--5--5--5--5--|
--------------------------|--------------------|--------------------------|


  E  E  E  E  E  E  E  E     E  E  E  E  E  E  E  E   
--------------------------|--------------------------|
--------------------------|--------------------------|
--------------------------|--------------------------|
--4--4--4--4--4--4--4--4--|--7--7--7--7--7--7--7--7--|
--2--2--2--2--2--2--2--2--|--5--5--5--5--5--5--5--5--|
--------------------------|--------------------------|


  E  E  E  E  E  E  E  E     E  E  E  E  E  E  E  E   
--------------------------|--------------------------|
--------------------------|--------------------------|
--------------------------|--------------------------|
--4--4--4--4--4--4--4--4--|--7--7--7--7--7--7--7--7--|
--2--2--2--2--2--2--2--2--|--5--5--5--5--5--5--5--5--|
--------------------------|--------------------------|


  E  E  E  E  E  E  E  E     E  E  E  E  E  E  E  E   
--------------------------|--------------------------|
--------------------------|--------------------------|
--------------------------|--------------------------|
--4--4--4--4--4--4--4--4--|--5--5--5--5--5--5--5--5--|
--2--2--2--2--2--2--2--2--|--5--5--5--5--5--5--5--5--|
--------------------------|--3--3--3--3--3--3--3--3--|


  E  E  E  E  E  E  E  E     E  E  E  E  E  E  E  E   
--------------------------|--------------------------|
--------------------------|--------------------------|
--------------------------|--------------------------|
--7--7--7--7--7--7--7--7--|--5--5--5--5--5--5--5--5--|
--7--7--7--7--7--7--7--7--|--5--5--5--5--5--5--5--5--|
--5--5--5--5--5--5--5--5--|--3--3--3--3--3--3--3--3--|


  E  E  E  E  E  E  E  E     E  E  E  E  E  E  E  E     Q    H.            
--------------------------|--------------------------|--------------------|
--------------------------|--------------------------|--------------------|
--------------------------|--------------------------|--------------------|
--7--7--7--7--7--7--7--7--|--7--7--7--7--7--7--7--7--|--7-----------------|
--7--7--7--7--7--7--7--7--|--5--5--5--5--5--5--5--5--|--5-----------------|
--5--5--5--5--5--5--5--5--|--------------------------|--------------------|


  E  E  E  E  E  E  E  E     E  E  E  E  E  E  E  E   
--------------------------|--------------------------|
--------------------------|--------------------------|
--------------------------|--------------------------|
--5--5--5--5--5--5--5--5--|--5--5--5--5--5--5--5--5--|
--5--5--5--5--5--5--5--5--|--5--5--5--5--5--5--5--5--|
--3--3--3--3--3--3--3--3--|--3--3--3--3--3--3--3--3--|


  E  E  E  E  E  E  E  E     E  E  E  E  E  E  E  E   
--------------------------|--------------------------|
--------------------------|--------------------------|
--------------------------|--------------------------|
--7--7--7--7--7--7--7--7--|--7--7--7--7--7--7--7--7--|
--5--5--5--5--5--5--5--5--|--5--5--5--5--5--5--5--5--|
--------------------------|--------------------------|


  E  E  E  E  E  E  E  E     E  E  E  E  E  E  E  E   
--------------------------|--------------------------|
--------------------------|--------------------------|
--------------------------|--------------------------|
--5--5--5--5--5--5--5--5--|--5--5--5--5--5--5--5--5--|
--5--5--5--5--5--5--5--5--|--5--5--5--5--5--5--5--5--|
--3--3--3--3--3--3--3--3--|--3--3--3--3--3--3--3--3--|


  E  E  E  E  E  E  E  E     E  E  E  E  E  E  E  E   
--------------------------|--------------------------|
--------------------------|--------------------------|
--------------------------|--------------------------|
--7--7--7--7--7--7--7--7--|--7--7--7--7--7--7--7--7--|
--7--7--7--7--7--7--7--7--|--7--7--7--7--7--7--7--7--|
--5--5--5--5--5--5--5--5--|--5--5--5--5--5--5--5--5--|


  E  E  E  E  E  E  E  E     E  E  E  E  E  E  E  E   
--------------------------|--------------------------|
--------------------------|--------------------------|
--------------------------|--------------------------|
--7--7--7--7--7--7--7--7--|--4--4--4--4--4--4--4--4--|
--5--5--5--5--5--5--5--5--|--2--2--2--2--2--2--2--2--|
--------------------------|--------------------------|


  E  E  E  E  E  E  E  E     E  E  E  E  E  E  E  E   
--------------------------|--------------------------|
--------------------------|--------------------------|
--------------------------|--------------------------|
--7--7--7--7--7--7--7--7--|--4--4--4--4--4--4--4--4--|
--5--5--5--5--5--5--5--5--|--2--2--2--2--2--2--2--2--|
--------------------------|--------------------------|


  E  E  E  E  E  E  E  E     E  E  E  E  E  E  E  E   
--------------------------|--------------------------|
--------------------------|--------------------------|
--------------------------|--------------------------|
--7--7--7--7--7--7--7--7--|--4--4--4--4--4--4--4--4--|
--5--5--5--5--5--5--5--5--|--2--2--2--2--2--2--2--2--|
--------------------------|--------------------------|


  E  E  E  E  E  E  E  E     E  E  E  E  E  E  E  E   
--------------------------|--------------------------|
--------------------------|--------------------------|
--------------------------|--------------------------|
--5--5--5--5--5--5--5--5--|--7--7--7--7--7--7--7--7--|
--5--5--5--5--5--5--5--5--|--7--7--7--7--7--7--7--7--|
--3--3--3--3--3--3--3--3--|--5--5--5--5--5--5--5--5--|


  E  E  E  E  E  E  E  E     E  E  E  E  E  E  E  E   
--------------------------|--------------------------|
--------------------------|--------------------------|
--------------------------|--------------------------|
--5--5--5--5--5--5--5--5--|--7--7--7--7--7--7--7--7--|
--5--5--5--5--5--5--5--5--|--7--7--7--7--7--7--7--7--|
--3--3--3--3--3--3--3--3--|--5--5--5--5--5--5--5--5--|


  E  E  E  E  E  E  E  E     E  E  E  E  E  E  E  E   
--------------------------|--------------------------|
--------------------------|--------------------------|
--------------------------|--------------------------|
--5--5--5--5--5--5--5--5--|--7--7--7--7--7--7--7--7--|
--5--5--5--5--5--5--5--5--|--7--7--7--7--7--7--7--7--|
--3--3--3--3--3--3--3--3--|--5--5--5--5--5--5--5--5--|


  E  E  E  E  E  E  E  E     Q    H.              Q    E  Q    E  E  E   
--------------------------|--------------------|------------------------|
--------------------------|--------------------|------------------------|
--------------------------|--------------------|------------------------|
--7--7--7--7--7--7--7--7--|--7-----------------|--7----0--7----0--7--0--|
--5--5--5--5--5--5--5--5--|--5-----------------|--5----0--5----0--5--0--|
--------------------------|--------------------|------------------------|


  Q    E  Q    E  E  E     Q    E  Q    E  E  E     Q    E  Q    E  E  E   
------------------------|------------------------|------------------------|
------------------------|------------------------|------------------------|
------------------------|------------------------|------------------------|
--4----0--4----0--4--6--|--7----0--7----0--7--0--|--4----0--4----0--4--6--|
--2----0--2----0--2--4--|--5----0--5----0--5--0--|--2----0--2----0--2--4--|
------------------------|------------------------|------------------------|


  Q    E  Q    E  E  E     Q    E  Q    E  E  E     E  E  E  E  E  E  E  E   
------------------------|------------------------|--------------------------|
------------------------|------------------------|--------------------------|
------------------------|------------------------|--------------------------|
--7----0--7----0--7--0--|--4----0--4----0--4--6--|--5--5--5--5--5--5--5--5--|
--5----0--5----0--5--0--|--2----0--2----0--2--4--|--5--5--5--5--5--5--5--5--|
------------------------|------------------------|--3--3--3--3--3--3--3--3--|


  E  E  E  E  E  E  E  E     E  E  E  E  E  E  E  E   
--------------------------|--------------------------|
--------------------------|--------------------------|
--------------------------|--------------------------|
--7--7--7--7--7--7--7--7--|--5--5--5--5--5--5--5--5--|
--7--7--7--7--7--7--7--7--|--5--5--5--5--5--5--5--5--|
--5--5--5--5--5--5--5--5--|--3--3--3--3--3--3--3--3--|


  E  E  E  E  E  E  E  E     E  E  E  E  E  E  E  E     Q    H.            
--------------------------|--------------------------|--------------------|
--------------------------|--------------------------|--------------------|
--------------------------|--------------------------|--------------------|
--7--7--7--7--7--7--7--7--|--7--7--7--7--7--7--7--7--|--7-----------------|
--7--7--7--7--7--7--7--7--|--5--5--5--5--5--5--5--5--|--5-----------------|
--5--5--5--5--5--5--5--5--|--------------------------|--------------------|


  E  E  E  E  E  E  E  E     E  E  E  E  E  E  E  E   
--------------------------|--------------------------|
--------------------------|--------------------------|
--------------------------|--------------------------|
--5--5--5--5--5--5--5--5--|--5--5--5--5--5--5--5--5--|
--5--5--5--5--5--5--5--5--|--5--5--5--5--5--5--5--5--|
--3--3--3--3--3--3--3--3--|--3--3--3--3--3--3--3--3--|


  E  E  E  E  E  E  E  E     E  E  E  E  E  E  E  E   
--------------------------|--------------------------|
--------------------------|--------------------------|
--------------------------|--------------------------|
--7--7--7--7--7--7--7--7--|--7--7--7--7--7--7--7--7--|
--5--5--5--5--5--5--5--5--|--5--5--5--5--5--5--5--5--|
--------------------------|--------------------------|


  E  E  E  E  E  E  E  E     E  E  E  E  E  E  E  E   
--------------------------|--------------------------|
--------------------------|--------------------------|
--------------------------|--------------------------|
--5--5--5--5--5--5--5--5--|--5--5--5--5--5--5--5--5--|
--5--5--5--5--5--5--5--5--|--5--5--5--5--5--5--5--5--|
--3--3--3--3--3--3--3--3--|--3--3--3--3--3--3--3--3--|


  E  E  E  E  E  E  E  E     E  E  E  E  E.  E.  E     E  E  E  E  E  E  E  E   
--------------------------|-------------------------|--------------------------|
--------------------------|-------------------------|--------------------------|
--------------------------|-------------------------|--------------------------|
--7--7--7--7--7--7--7--7--|--7--7--7--7--7---7---6--|--5--5--5--5--5--5--5--5--|
--7--7--7--7--7--7--7--7--|--7--7--7--7--7---7---6--|--5--5--5--5--5--5--5--5--|
--5--5--5--5--5--5--5--5--|--5--5--5--5--5---5---4--|--3--3--3--3--3--3--3--3--|


  E  E  E  E  E  E  E  E     E  E  E  E  E  E  E  E   
--------------------------|--------------------------|
--------------------------|--------------------------|
--------------------------|--------------------------|
--5--5--5--5--5--5--5--5--|--7--7--7--7--7--7--7--7--|
--5--5--5--5--5--5--5--5--|--5--5--5--5--5--5--5--5--|
--3--3--3--3--3--3--3--3--|--------------------------|


  E  E  E  E  E  E  E  E     E  E  E  E  E  E  E  E   
--------------------------|--------------------------|
--------------------------|--------------------------|
--------------------------|--------------------------|
--7--7--7--7--7--7--7--7--|--5--5--5--5--5--5--5--5--|
--5--5--5--5--5--5--5--5--|--5--5--5--5--5--5--5--5--|
--------------------------|--3--3--3--3--3--3--3--3--|


  E  E  E  E  E  E  E  E     E  E  E  E  E  E  E  E   
--------------------------|--------------------------|
--------------------------|--------------------------|
--------------------------|--------------------------|
--5--5--5--5--5--5--5--5--|--7--7--7--7--7--7--7--7--|
--5--5--5--5--5--5--5--5--|--7--7--7--7--7--7--7--7--|
--3--3--3--3--3--3--3--3--|--5--5--5--5--5--5--5--5--|


  E  E  E  E  E  E  E  E     E  E  E  E  E  E  E  E     Q    H.            
--------------------------|--------------------------|--------------------|
--------------------------|--------------------------|--------------------|
--------------------------|--------------------------|--------------------|
--7--7--7--7--7--7--7--7--|--7--7--7--7--7--7--7--7--|--7-----------------|
--7--7--7--7--7--7--7--7--|--7--7--7--7--7--7--7--7--|--7-----------------|
--5--5--5--5--5--5--5--5--|--5--5--5--5--5--5--5--5--|--5-----------------|


  E  E  E  E  E  E  E  E     E  E  E  E  E  E  E  E   
--------------------------|--------------------------|
--------------------------|--------------------------|
--------------------------|--------------------------|
--7--7--7--7--7--7--7--7--|--4--4--4--4--4--4--4--4--|
--5--5--5--5--5--5--5--5--|--2--2--2--2--2--2--2--2--|
--------------------------|--------------------------|


  E  E  E  E  E  E  E  E     E  E  E  E  E  E  E  E   
--------------------------|--------------------------|
--------------------------|--------------------------|
--------------------------|--------------------------|
--7--7--7--7--7--7--7--7--|--4--4--4--4--4--4--4--4--|
--5--5--5--5--5--5--5--5--|--2--2--2--2--2--2--2--2--|
--------------------------|--------------------------|


  E  E  E  E  E  E  E  E     E  E  E  E  E  E  E  E   
--------------------------|--------------------------|
--------------------------|--------------------------|
--------------------------|--------------------------|
--7--7--7--7--7--7--7--7--|--4--4--4--4--4--4--4--4--|
--5--5--5--5--5--5--5--5--|--2--2--2--2--2--2--2--2--|
--------------------------|--------------------------|


  E  E  E  E  E  E  E  E     E  E  E  E  E  E  E  E   
--------------------------|--------------------------|
--------------------------|--------------------------|
--------------------------|--------------------------|
--5--5--5--5--5--5--5--5--|--7--7--7--7--7--7--7--7--|
--5--5--5--5--5--5--5--5--|--7--7--7--7--7--7--7--7--|
--3--3--3--3--3--3--3--3--|--5--5--5--5--5--5--5--5--|


  E  E  E  E  E  E  E  E     E  E  E  E  E  E  E  E   
--------------------------|--------------------------|
--------------------------|--------------------------|
--------------------------|--------------------------|
--5--5--5--5--5--5--5--5--|--7--7--7--7--7--7--7--7--|
--5--5--5--5--5--5--5--5--|--7--7--7--7--7--7--7--7--|
--3--3--3--3--3--3--3--3--|--5--5--5--5--5--5--5--5--|


  E  E  E  E  E  E  E  E     E  E  E  E  E  E  E  E   
--------------------------|--------------------------|
--------------------------|--------------------------|
--------------------------|--------------------------|
--5--5--5--5--5--5--5--5--|--7--7--7--7--7--7--7--7--|
--5--5--5--5--5--5--5--5--|--7--7--7--7--7--7--7--7--|
--3--3--3--3--3--3--3--3--|--5--5--5--5--5--5--5--5--|


  E  E  E  E  E  E  E  E     E  E  E  E  E  E  E  E   
--------------------------|--------------------------|
--------------------------|--------------------------|
--------------------------|--------------------------|
--5--5--5--5--5--5--5--5--|--7--7--7--7--7--7--7--7--|
--5--5--5--5--5--5--5--5--|--7--7--7--7--7--7--7--7--|
--3--3--3--3--3--3--3--3--|--5--5--5--5--5--5--5--5--|


  E  E  E  E  E  E  E  E     Q    H.                                            
--------------------------|--------------------|---------------|---------------|
--------------------------|--------------------|---------------|---------------|
--------------------------|--------------------|---------------|---------------|
--7--7--7--7--7--7--7--7--|--7-----------------|---------------|---------------|
--5--5--5--5--5--5--5--5--|--5-----------------|---------------|---------------|
--------------------------|--------------------|---------------|---------------|


                                  ^                   ^                 
                                  W                   W                 
---------------|---------------|--5----------------|--7----------------|
---------------|---------------|--7----------------|--7----------------|
---------------|---------------|--7----------------|--7----------------|
---------------|---------------|--7----------------|-------------------|
---------------|---------------|-------------------|-------------------|
---------------|---------------|-------------------|-------------------|


  ^                   ^                   ^                   ^                 
  W                   W                   W                   W                 
--5----------------|--7----------------|--5----------------|--7----------------|
--7----------------|--7----------------|--7----------------|--7----------------|
--7----------------|--7----------------|--7----------------|--7----------------|
--7----------------|-------------------|--7----------------|-------------------|
-------------------|-------------------|-------------------|-------------------|
-------------------|-------------------|-------------------|-------------------|


  ^                   ^                   ^                   ^                 
  W                   W                   W                   W                 
--5----------------|--7----------------|--5----------------|--7----------------|
--7----------------|--7----------------|--7----------------|--7----------------|
--7----------------|--7----------------|--7----------------|--7----------------|
--7----------------|-------------------|--7----------------|-------------------|
-------------------|-------------------|-------------------|-------------------|
-------------------|-------------------|-------------------|-------------------|


  ^                   ^                                                         
  W                   W                                                         
--5----------------|--7----------------|-------------------|-------------------|
--7----------------|--7----------------|-------------------|-------------------|
--7----------------|--7----------------|-------------------|-------------------|
--7----------------|-------------------|-------------------|-------------------|
-------------------|-------------------|-------------------|-------------------|
-------------------|-------------------|-------------------|-------------------|


-------------------|-------------------|-------------------|-------------------|
-------------------|-------------------|-------------------|-------------------|
-------------------|-------------------|-------------------|-------------------|
-------------------|-------------------|-------------------|-------------------|
-------------------|-------------------|-------------------|-------------------|
-------------------|-------------------|-------------------|-------------------|


                                          ^                   ^                 
                                          W                   W                 
-------------------|-------------------|--5----------------|--7----------------|
-------------------|-------------------|--7----------------|--7----------------|
-------------------|-------------------|--7----------------|--7----------------|
-------------------|-------------------|--7----------------|-------------------|
-------------------|-------------------|-------------------|-------------------|
-------------------|-------------------|-------------------|-------------------|


  ^                   ^                   ^                   ^                 
  W                   W                   W                   W                 
--5----------------|--7----------------|--5----------------|--7----------------|
--7----------------|--7----------------|--7----------------|--7----------------|
--7----------------|--7----------------|--7----------------|--7----------------|
--7----------------|-------------------|--7----------------|-------------------|
-------------------|-------------------|-------------------|-------------------|
-------------------|-------------------|-------------------|-------------------|


  ^                   ^                                            
  W                   W                   E  E  E  E  E  E  E  E   
--5----------------|--7----------------|--------------------------|
--7----------------|--7----------------|--------------------------|
--7----------------|--7----------------|--------------------------|
--7----------------|-------------------|--7--7--7--7--7--7--7--7--|
-------------------|-------------------|--5--5--5--5--5--5--5--5--|
-------------------|-------------------|--------------------------|


  E  E  E  E  E  E  E  E     E  E  E  E  E  E  E  E   
----------------

Itulah Chord Gitar/Kunci Gitar THE CHANGCUTERS RACUN DUNIA, Semoga Chord Gitar/Kunci Gitar THE CHANGCUTERS RACUN DUNIA cocok untuk kamu dan suaramu tentunya semoga Chord Gitar/Kunci Gitar THE CHANGCUTERS RACUN DUNIA bermanfaat bagi kamu dan bisa dimainkan dengan lancar ya, dibawah ini kami menyediakan Chord Gitar/Kunci Gitar selain THE CHANGCUTERS RACUN DUNIA Kami bisa pilih chord kunci gitar yang relate dengan THE CHANGCUTERS RACUN DUNIA ataupun random chord yang tersedia dan bisa gunakan kolom pencarian untuk mencari Chord Gitar/Kunci Gitar yang kamu inginkan, semoga kami dapat menghadirkan Chord Gitar/Kunci Gitar yang lengkap, bagus dan terupdate untuk kamu jangan lupa untuk membagikan Chord Gitar/Kunci Gitar THE CHANGCUTERS RACUN DUNIA, terimakasih.