Chord Gitar/Kunci Gitar THE CHANGCUTERS HIJRAH KE LONDON [MELODY TAB]

Chord Gitar/Kunci Gitar THE CHANGCUTERS HIJRAH KE LONDON [MELODY TAB]

'^                            ^   ^   ^   ^   ^   
      E.                           E.  E   E.  E.  E   
E||--10----------------------------9---7--10---9---7--|
B||--10----------------------------9---7--10---9---7--|
G||---------------------------------------------------|
D||---------------------------------------------------|
A||---------------------------------------------------|
E||---------------------------------------------------|


                                  
   ^         v     v   ^   v      ^                            v              
   Q     E   Q     E   E   E      Q                        E   Q    Q     E   
-------------9-----9-------9--|-------------------------------12----9--------|
--10-----x--10----10------10--|--12------------------------x--12---------12--|
---9-----x-------------9---9--|--13------------------------x--13-------------|
--11-----x------------11------|--14------------------------x-----------------|
--12------------------12------|--14------------------------------------------|
------------------------------|----------------------------------------------|


   ^         v     ^                                  
   Q     E   Q     Q     E     E.  E.  E  E.  E.  E   
------------10--------------|--5---5---5--7---5---4--|
--10-----x--10----10-----x--|--5---5---5--7---5---4--|
--11-----x--11----11-----x--|--6---6---6--7---6---5--|
--12-----x--------12-----x--|------------------------|
--12------------------------|------------------------|
----------------------------|------------------------|


   ^         v     v   ^   v      ^         v              
   Q     E   Q     E   E   E      Q     E   Q    Q     E   
-------------9-----9-------9--|------------12----9--------|
--10-----x--10----10------10--|--12-----x--12---------12--|
---9-----x-------------9---9--|--13-----x--13-------------|
--11-----x------------11------|--14-----x-----------------|
--12------------------12------|--14-----------------------|
------------------------------|---------------------------|


   ^         v     ^                                  
   Q     E   Q     Q     E     E.  E.  E  E.  E.  E   
------------10--------------|--5---5---5--7---5---4--|
--10-----x--10----10-----x--|--5---5---5--7---5---4--|
--11-----x--11----11-----x--|--6---6---6--7---6---5--|
--12-----x--------12-----x--|------------------------|
--12------------------------|------------------------|
----------------------------|------------------------|


   ^         v     v   ^   v      ^         v     v   ^   v   
   Q     E   Q     E   E   E      Q     E   Q     E   E   E   
-------------9-----9-------9--|------------12----12------12--|
--10-----x--10----10------10--|--12-----x--12----12------12--|
---9-----x-------------9---9--|--13-----x--13--------13--13--|
--11-----x------------11------|--14-----x------------14------|
--12------------------12------|--14------------------14------|
------------------------------|------------------------------|


   ^         v     ^     ^      ^   ^   ^   ^   ^   ^   
   Q     E   Q     Q     E      E.  E.  E   E.  E.  E   
------------10----------10--|--10---9---7--10---9---7--|
--10-----x--10----10----10--|--10---9---7--10---9---7--|
--11-----x--11----11----11--|--------------------------|
--12-----x--------12--------|--------------------------|
--12------------------------|--------------------------|
----------------------------|--------------------------|


   ^         v     v   ^   v      ^         v              
   Q     E   Q     E   E   E      Q     E   Q    Q     E   
-------------9-----9-------9--|------------12----9--------|
--10-----x--10----10------10--|--12-----x--12---------12--|
---9-----x-------------9---9--|--13-----x--13-------------|
--11-----x------------11------|--14-----x-----------------|
--12------------------12------|--14-----------------------|
------------------------------|---------------------------|


   ^         v     ^                                  
   Q     E   Q     Q     E     E.  E.  E  E.  E.  E   
------------10--------------|--5---5---5--7---5---4--|
--10-----x--10----10-----x--|--5---5---5--7---5---4--|
--11-----x--11----11-----x--|--6---6---6--7---6---5--|
--12-----x--------12-----x--|------------------------|
--12------------------------|------------------------|
----------------------------|------------------------|


   ^         v     v   ^   v      ^         v              
   Q     E   Q     E   E   E      Q     E   Q    Q     E   
-------------9-----9-------9--|------------12----9--------|
--10-----x--10----10------10--|--12-----x--12---------12--|
---9-----x-------------9---9--|--13-----x--13-------------|
--11-----x------------11------|--14-----x-----------------|
--12------------------12------|--14-----------------------|
------------------------------|---------------------------|


   ^         v     ^                                  
   Q     E   Q     Q     E     E.  E.  E  E.  E.  E   
------------10--------------|--5---5---5--7---5---4--|
--10-----x--10----10-----x--|--5---5---5--7---5---4--|
--11-----x--11----11-----x--|--6---6---6--7---6---5--|
--12-----x--------12-----x--|------------------------|
--12------------------------|------------------------|
----------------------------|------------------------|


   ^         v     v   ^   v      ^         v     v   ^   v   
   Q     E   Q     E   E   E      Q     E   Q     E   E   E   
-------------9-----9-------9--|------------12----12------12--|
--10-----x--10----10------10--|--12-----x--12----12------12--|
---9-----x-------------9---9--|--13-----x--13--------13--13--|
--11-----x------------11------|--14-----x------------14------|
--12------------------12------|--14------------------14------|
------------------------------|------------------------------|


   ^         v     ^     ^                            
   Q     E   Q     Q     E     E.  E.  E  E.  E.  E   
------------10----------10--|--5---5---5--7---5---4--|
--10-----x--10----10----10--|--5---5---5--7---5---4--|
--11-----x--11----11----11--|--6---6---6--7---6---5--|
--12-----x--------12--------|------------------------|
--12------------------------|------------------------|
----------------------------|------------------------|


   ^         v     v   ^   v      ^         v     v   ^   v   
   Q     E   Q     E   E   E      Q     E   Q     E   E   E   
-------------9-----9-------9--|------------12----12------12--|
--10-----x--10----10------10--|--12-----x--12----12------12--|
---9-----x-------------9---9--|--13-----x--13--------13--13--|
--11-----x------------11------|--14-----x------------14------|
--12------------------12------|--14------------------14------|
------------------------------|------------------------------|


   ^         v     ^     ^      ^   ^   ^   ^   ^   ^      ^                 
   Q     E   Q     Q     E      E.  E.  E   E.  E.  E      W                 
------------10----------10--|--10---9---7--10---9---7--|---9----------------|
--10-----x--10----10----10--|--10---9---7--10---9---7--|---9----------------|
--11-----x--11----11----11--|--------------------------|--10----------------|
--12-----x--------12--------|--------------------------|--11----------------|
--12------------------------|--------------------------|--------------------|
----------------------------|--------------------------|--------------------|


-------------------|-------------------|-------------------|-------------------|
-------------------|-------------------|-------------------|-------------------|
-------------------|-------------------|-------------------|-------------------|
-------------------|-------------------|-------------------|-------------------|
-------------------|-------------------|-------------------|-------------------|
-------------------|-------------------|-------------------|-------------------|


                                          Q    E  E  E  E  E  E   
-------------------|-------------------|--7----7--7--7--7--7--7--|
-------------------|-------------------|--9----9--9--9--9--9--9--|
-------------------|-------------------|--9----9--9--9--9--9--9--|
-------------------|-------------------|-------------------------|
-------------------|-------------------|-------------------------|
-------------------|-------------------|-------------------------|


   ^         v     v   ^   v      ^         v     v   ^   v   
   Q     E   Q     E   E   E      Q     E   Q     E   E   E   
-------------9-----9-------9--|------------12----12------12--|
--10-----x--10----10------10--|--12-----x--12----12------12--|
---9-----x-------------9---9--|--13-----x--13--------13--13--|
--11-----x------------11------|--14-----x------------14------|
--12------------------12------|--14------------------14------|
------------------------------|------------------------------|


   ^         v     ^                                  
   Q     E   Q     Q     E     E.  E.  E  E.  E.  E   
------------10--------------|--5---5---5--7---5---4--|
--10-----x--10----10-----x--|--5---5---5--7---5---4--|
--11-----x--11----11-----x--|--6---6---6--7---6---5--|
--12-----x--------12-----x--|------------------------|
--12------------------------|------------------------|
----------------------------|------------------------|


   ^         v     v   ^   v      ^         v     v   ^   v   
   Q     E   Q     E   E   E      Q     E   Q     E   E   E   
-------------9-----9-------9--|------------12----12------12--|
--10-----x--10----10------10--|--12-----x--12----12------12--|
---9-----x-------------9---9--|--13-----x--13--------13--13--|
--11-----x------------11------|--14-----x------------14------|
--12------------------12------|--14------------------14------|
------------------------------|------------------------------|


   ^         v     ^            ^   ^   ^   ^   ^   ^   
   Q     E   Q     Q     E      E.  E.  E   E.  E.  E   
------------10--------------|--10---9---7--10---9---7--|
--10-----x--10----10-----x--|--10---9---7--10---9---7--|
--11-----x--11----11-----x--|--------------------------|
--12-----x--------12-----x--|--------------------------|
--12------------------------|--------------------------|
----------------------------|--------------------------|


   ^         v     v   ^   v      ^         v     v   ^   v   
   Q     E   Q     E   E   E      Q     E   Q     E   E   E   
-------------9-----9-------9--|------------12----12------12--|
--10-----x--10----10------10--|--12-----x--12----12------12--|
---9-----x-------------9---9--|--13-----x--13--------13--13--|
--11-----x------------11------|--14-----x------------14------|
--12------------------12------|--14------------------14------|
------------------------------|------------------------------|


   ^         v     ^                                  
   Q     E   Q     Q     E     E.  E.  E  E.  E.  E   
------------10--------------|--5---5---5--7---5---4--|
--10-----x--10----10-----x--|--5---5---5--7---5---4--|
--11-----x--11----11-----x--|--6---6---6--7---6---5--|
--12-----x--------12-----x--|------------------------|
--12------------------------|------------------------|
----------------------------|------------------------|


   ^         v     v   ^   v      ^         v     v   ^   v   
   Q     E   Q     E   E   E      Q     E   Q     E   E   E   
-------------9-----9-------9--|------------12----12------12--|
--10-----x--10----10------10--|--12-----x--12----12------12--|
---9-----x-------------9---9--|--13-----x--13--------13--13--|
--11-----x------------11------|--14-----x------------14------|
--12------------------12------|--14------------------14------|
------------------------------|------------------------------|


   ^         v     ^                                   
   Q     E   Q     Q     E     Q    E  E  E  E  E  E   
------------10--------------|--7----7--7--7--7--7--7--|
--10-----x--10----10-----x--|--9----9--9--9--9--9--9--|
--11-----x--11----11-----x--|--9----9--9--9--9--9--9--|
--12-----x--------12-----x--|-------------------------|
--12------------------------|-------------------------|
----------------------------|-------------------------|


  E   E  E  Q    E  E  E     E   E  E  Q    E  E  E   
--------------------------|--------------------------|
--------------------------|--------------------------|
--4s--6--6--4----6--4--6--|--6s--7--7--6----7--6--7--|
--------------------------|--------------------------|
--------------------------|--------------------------|
--------------------------|--------------------------|


  E   E  E  Q    E  E  E      E.   E.   E   E.  E.  E   
--------------------------|----------------------------|
--------------------------|----------------------------|
--7s--9--9--7----9--7--9--|--10---10---10--10---9---7--|
--------------------------|----------------------------|
--------------------------|----------------------------|
--------------------------|----------------------------|


  E   E  E  Q    E  E  E     E   E  E  Q    E  E  E   
--------------------------|--------------------------|
--------------------------|--------------------------|
--4s--6--6--4----6--4--6--|--6s--7--7--6----7--6--7--|
--------------------------|--------------------------|
--------------------------|--------------------------|
--------------------------|--------------------------|


  E   E  E  Q    E  E  E      E.   E.   E   E.  E.   E   
--------------------------|-----------------------------|
--------------------------|-----------------------------|
--7s--9--9--7----9--7--9--|--10---10---10--10---9---10--|
--------------------------|-----------------------------|
--------------------------|-----------------------------|
--------------------------|-----------------------------|


  E    E   E   Q     E  E   E     Q.     Q    E   E   E   
------------------------9------|-------------------------|
--9s--10--10--10----10-----10--|--9------9----9--10--12--|
-------------------------------|-------------------------|
-------------------------------|-------------------------|
-------------------------------|-------------------------|
-------------------------------|-------------------------|


   E.  E.  H        E      E.   E.   E   E.   E.  E   
-----------------------|-----------------------------|
--10---9---7--------9--|--10---10---10--12---10---9--|
-----------------------|-----------------------------|
-----------------------|-----------------------------|
-----------------------|-----------------------------|
-----------------------|-----------------------------|


   Q.      Q     E  E   E     Q.     Q    E   E   E      E.  E.  H        E   
--------------------9------|-------------------------|-----------------------|
--10------10----10-----10--|--9------9----9--10--12--|--10---9---7--------9--|
---------------------------|-------------------------|-----------------------|
---------------------------|-------------------------|-----------------------|
---------------------------|-------------------------|-----------------------|
---------------------------|-------------------------|-----------------------|


   E.   E.   E   E.   E.   E      E    H.           E     W                 
------------------------------|------------------------|-------------------|
--10---10---10--12---10---12--|--12s--14------------L--|--L----------------|
------------------------------|------------------------|-------------------|
------------------------------|------------------------|-------------------|
------------------------------|------------------------|-------------------|
------------------------------|------------------------|-------------------|


                                Q    E  E  E  E  E  E   
-----|-----|-----|-----|-----|--7----7--7--7--7--7--7--|
-----|-----|-----|-----|-----|--9----9--9--9--9--9--9--|
-----|-----|-----|-----|-----|--9----9--9--9--9--9--9--|
-----|-----|-----|-----|-----|-------------------------|
-----|-----|-----|-----|-----|-------------------------|
-----|-----|-----|-----|-----|-------------------------|


   ^         v     v   ^   v      ^         v     v   ^   v   
   Q     E   Q     E   E   E      Q     E   Q     E   E   E   
-------------9-----9-------9--|------------12----12------12--|
--10-----x--10----10------10--|--12-----x--12----12------12--|
---9-----x-------------9---9--|--13-----x--13--------13--13--|
--11-----x------------11------|--14-----x------------14------|
--12------------------12------|--14------------------14------|
------------------------------|------------------------------|


   ^         v     ^                                  
   Q     E   Q     Q     E     E.  E.  E  E.  E.  E   
------------10--------------|--5---5---5--7---5---4--|
--10-----x--10----10-----x--|--5---5---5--7---5---4--|
--11-----x--11----11-----x--|--6---6---6--7---6---5--|
--12-----x--------12-----x--|------------------------|
--12------------------------|------------------------|
----------------------------|------------------------|


   ^         v     v   ^   v      ^         v     v   ^   v   
   Q     E   Q     E   E   E      Q     E   Q     E   E   E   
-------------9-----9-------9--|------------12----12------12--|
--10-----x--10----10------10--|--12-----x--12----12------12--|
---9-----x-------------9---9--|--13-----x--13--------13--13--|
--11-----x------------11------|--14-----x------------14------|
--12------------------12------|--14------------------14------|
------------------------------|------------------------------|


   ^         v     ^            ^   ^   ^   ^   ^   ^   
   Q     E   Q     Q     E      E.  E.  E   E.  E.  E   
------------10--------------|--10---9---7--10---9---7--|
--10-----x--10----10-----x--|--10---9---7--10---9---7--|
--11-----x--11----11-----x--|--------------------------|
--12-----x--------12-----x--|--------------------------|
--12------------------------|--------------------------|
----------------------------|--------------------------|


   ^         v     v   ^   v      ^         v     v   ^   v   
   Q     E   Q     E   E   E      Q     E   Q     E   E   E   
-------------9-----9-------9--|------------12----12------12--|
--10-----x--10----10------10--|--12-----x--12----12------12--|
---9-----x-------------9---9--|--13-----x--13--------13--13--|
--11-----x------------11------|--14-----x------------14------|
--12------------------12------|--14------------------14------|
------------------------------|------------------------------|


   ^         v     ^                                  
   Q     E   Q     Q     E     E.  E.  E  E.  E.  E   
------------10--------------|--5---5---5--7---5---4--|
--10-----x--10----10-----x--|--5---5---5--7---5---4--|
--11-----x--11----11-----x--|--6---6---6--7---6---5--|
--12-----x--------12-----x--|------------------------|
--12------------------------|------------------------|
----------------------------|------------------------|


   ^         v     v   ^   v      ^         v     v   ^   v   
   Q     E   Q     E   E   E      Q     E   Q     E   E   E   
-------------9-----9-------9--|------------12----12------12--|
--10-----x--10----10------10--|--12-----x--12----12------12--|
---9-----x-------------9---9--|--13-----x--13--------13--13--|
--11-----x------------11------|--14-----x------------14------|
--12------------------12------|--14------------------14------|
------------------------------|------------------------------|


   ^         v     ^                                   
   Q     E   Q     Q     E     Q    E  E  E  E  E  E   
------------10--------------|--7----7--7--7--7--7--7--|
--10-----x--10----10-----x--|--9----9--9--9--9--9--9--|
--11-----x--11----11-----x--|--9----9--9--9--9--9--9--|
--12-----x--------12-----x--|-------------------------|
--12------------------------|-------------------------|
----------------------------|-------------------------|


  E    E   E  Q     E  E   E      E    E   E   Q     E   E   E   
------------------------------|---------------------------------|
--9s--10--10--9----10--9--10--|--10s--12--12--10----12--10--12--|
------------------------------|---------------------------------|
------------------------------|---------------------------------|
------------------------------|---------------------------------|
------------------------------|---------------------------------|


   E    E   E   Q     E   E   E      E.   E.   E   E.   E.   E   
---------------------------------|------------------------------|
--12s--14--14--12----14--12--14--|--15---15---15--15---14---12--|
---------------------------------|------------------------------|
---------------------------------|------------------------------|
---------------------------------|------------------------------|
---------------------------------|------------------------------|


  E    E   E  Q     E  E   E      E    E   E   Q     E   E   E   
------------------------------|---------------------------------|
--9s--10--10--9----10--9--10--|--10s--12--12--10----12--10--12--|
------------------------------|---------------------------------|
------------------------------|---------------------------------|
------------------------------|---------------------------------|
------------------------------|---------------------------------|


   E    E   E   Q     E   E   E      E.   E.   E   E.   E.   E   
---------------------------------|------------------------------|
--12s--14--14--12----14--12--14--|--15---15---15--15---14---12--|
---------------------------------|------------------------------|
---------------------------------|------------------------------|
---------------------------------|------------------------------|
---------------------------------|------------------------------|


   E   E   E   E    E    E   E   E       E    E   E   E   Q       E   E    
------------------------------------|-------------------------------------|
------------------------------------|-------------------------------------|
----------11--14--(11)------11--14--|--(14)------11--14--16br----14--16s--|
--11--14----------------14----------|--------14---------------------------|
------------------------------------|-------------------------------------|
------------------------------------|-------------------------------------|


   Q     E   E   E   E   E   E       E    E   E   E   E   E   E   E   
--------------------------------|------------------------------------|
--------------------------------|------------------------------------|
--18----16--14--16--14--11------|--------------------11--14--11--14--|
----------------------------14--|--(14)------11--14------------------|
--------------------------------|--------14--------------------------|
--------------------------------|------------------------------------|


    E     E    E   E    E    E   E   E       E    E   E   E   Q       E   E    
----------------------------------------|-------------------------------------|
----------------------------------------|-------------------------------------|
----L---------11--14--(11)------11--14--|--(14)------11--14--16br----14--16s--|
--(11)--(14)----------------14----------|--------14---------------------------|
----------------------------------------|-------------------------------------|
----------------------------------------|-------------------------------------|


   Q     E   E   E   E   Q           E.   E.   E   E.   E.   E   
------------------------------|---------------------------------|
------------------------------|---------------------------------|
--18----16--14--16--14--16----|--16g18---16---14--16---14-------|
------------------------------|-----------------------------16--|
------------------------------|---------------------------------|
------------------------------|---------------------------------|


                       ^                   ^                 
   W                   W                   W                 
--------------------|--4----------------|--2----------------|
--------------------|--5----------------|--3----------------|
--14----------------|--6----------------|--4----------------|
--------------------|--6----------------|--4----------------|
--------------------|-------------------|-------------------|
--------------------|-------------------|-------------------|


  E.  E.  E  E.  E.  E      W                    W                  
--5---5---5--7---5---4--|---9----------------|---L----------------||
--5---5---5--7---5---4--|--10----------------|---L----------------||
--6---6---6--7---6---5--|---9----------------|---L----------------||
------------------------|--11----------------|---L----------------||
------------------------|--------------------|--------------------||
------------------------|--------------------|--------------------||'

Itulah Chord Gitar/Kunci Gitar THE CHANGCUTERS HIJRAH KE LONDON [MELODY TAB], Semoga Chord Gitar/Kunci Gitar THE CHANGCUTERS HIJRAH KE LONDON [MELODY TAB] cocok untuk kamu dan suaramu tentunya semoga Chord Gitar/Kunci Gitar THE CHANGCUTERS HIJRAH KE LONDON [MELODY TAB] bermanfaat bagi kamu dan bisa dimainkan dengan lancar ya, dibawah ini kami menyediakan Chord Gitar/Kunci Gitar selain THE CHANGCUTERS HIJRAH KE LONDON [MELODY TAB] Kami bisa pilih chord kunci gitar yang relate dengan THE CHANGCUTERS HIJRAH KE LONDON [MELODY TAB] ataupun random chord yang tersedia dan bisa gunakan kolom pencarian untuk mencari Chord Gitar/Kunci Gitar yang kamu inginkan, semoga kami dapat menghadirkan Chord Gitar/Kunci Gitar yang lengkap, bagus dan terupdate untuk kamu jangan lupa untuk membagikan Chord Gitar/Kunci Gitar THE CHANGCUTERS HIJRAH KE LONDON [MELODY TAB], terimakasih.