Chord Gitar/Kunci Gitar RAN PANDANGAN PERTAMA [TAB]

Chord Gitar/Kunci Gitar RAN PANDANGAN PERTAMA [TAB]

'e|5/6\5-1-------1---|------------|------------1---------|
B|--------3-1-3---3~|-1~--1------|-1---1----3~--3-1-----|
G|------------------|---3---33-0~|--3----33---------5-3~|
D|------------------|------------|----------------------|
A|------------------|------------|----------------------|
E|------------------|------------|----------------------|

`Oh my, oh my, oh my...`

e|5/6\5-1-------5~--|-10----10------5~|-10----10------12~~|
B|--------3-1-3-----|----13----1313---|----13----1313-----|
G|------------------|-----------------|-------------------|
D|------------------|-----------------|-------------------|
A|------------------|-----------------|-------------------|
E|------------------|-----------------|-------------------|'

Itulah Chord Gitar/Kunci Gitar RAN PANDANGAN PERTAMA [TAB], Semoga Chord Gitar/Kunci Gitar RAN PANDANGAN PERTAMA [TAB] cocok untuk kamu dan suaramu tentunya semoga Chord Gitar/Kunci Gitar RAN PANDANGAN PERTAMA [TAB] bermanfaat bagi kamu dan bisa dimainkan dengan lancar ya, dibawah ini kami menyediakan Chord Gitar/Kunci Gitar selain RAN PANDANGAN PERTAMA [TAB] Kami bisa pilih chord kunci gitar yang relate dengan RAN PANDANGAN PERTAMA [TAB] ataupun random chord yang tersedia dan bisa gunakan kolom pencarian untuk mencari Chord Gitar/Kunci Gitar yang kamu inginkan, semoga kami dapat menghadirkan Chord Gitar/Kunci Gitar yang lengkap, bagus dan terupdate untuk kamu jangan lupa untuk membagikan Chord Gitar/Kunci Gitar RAN PANDANGAN PERTAMA [TAB], terimakasih.