Chord Gitar/Kunci Gitar PETERPAN TAK BISAKAH (TAB)

Chord Gitar/Kunci Gitar PETERPAN TAK BISAKAH (TAB)

'E|--5/7--7--5--3------------------------------------
B|----------------5--5--5--3/5--5--3--5/7--7--5--3--
G|--------------------------------------------------
D|--------------------------------------------------
A|--------------------------------------------------
E|--------------------------------------------------

E|--5h7--7--12--10--7--7--7--
B|---------------------------
G|---------------------------
D|---------------------------
A|---------------------------
E|---------------------------

E|--7--5/7--7--3--3--3--2--3--2-----
B|-------------------------------3--
G|----------------------------------
D|----------------------------------
A|----------------------------------
E|----------------------------------

Ni tab udh gw jamin bener...tpi klo slah maklumin aj yee..
by : GibQar'

Itulah Chord Gitar/Kunci Gitar PETERPAN TAK BISAKAH (TAB), Semoga Chord Gitar/Kunci Gitar PETERPAN TAK BISAKAH (TAB) cocok untuk kamu dan suaramu tentunya semoga Chord Gitar/Kunci Gitar PETERPAN TAK BISAKAH (TAB) bermanfaat bagi kamu dan bisa dimainkan dengan lancar ya, dibawah ini kami menyediakan Chord Gitar/Kunci Gitar selain PETERPAN TAK BISAKAH (TAB) Kami bisa pilih chord kunci gitar yang relate dengan PETERPAN TAK BISAKAH (TAB) ataupun random chord yang tersedia dan bisa gunakan kolom pencarian untuk mencari Chord Gitar/Kunci Gitar yang kamu inginkan, semoga kami dapat menghadirkan Chord Gitar/Kunci Gitar yang lengkap, bagus dan terupdate untuk kamu jangan lupa untuk membagikan Chord Gitar/Kunci Gitar PETERPAN TAK BISAKAH (TAB), terimakasih.