Chord Gitar/Kunci Gitar PETERPAN TAK BISAKAH

Chord Gitar/Kunci Gitar PETERPAN TAK BISAKAH

'Intro: Em A C D 2X

        Em                  A
hatiku bimbang namun tetap pikirkanmu
    C                D
Selalu slalu dalam hatiku
       Em             A
kumelangkah sejauh apapun itu
    C                D
Selalu kau didalam hatiku

        Em                A
ku berjalan berjalan memutar waktu
     C                 D
Berharap temukan sisa hatimu
        Em               A
mengertilah kuingin engkau begitu
     C                  D
Mengerti kau didalam hatiku

REFF:
         G             D
tak bisakah kau menungguku
       Em                C
hingga nanti tetap menunggu
         G             D
tak bisakah kau menuntunku
     Em             C
menemani dalam hidupku

        Em                A
ku berjalan berjalan memutar waktu
     C                  D
Berharap temukan sisa hatimu
        Em               A
mengertilah kuingin engkau begitu
     C                  D
mengerti kau didalam hatiku

REFF

INTERLUDE: G D Em C 2X

REFF 2X''E|--5/7--7--5--3------------------------------------
B|----------------5--5--5--3/5--5--3--5/7--7--5--3--
G|--------------------------------------------------
D|--------------------------------------------------
A|--------------------------------------------------
E|--------------------------------------------------

E|--5h7--7--12--10--7--7--7--
B|---------------------------
G|---------------------------
D|---------------------------
A|---------------------------
E|---------------------------

E|--7--5/7--7--3--3--3--2--3--2-----
B|-------------------------------3--
G|----------------------------------
D|----------------------------------
A|----------------------------------
E|----------------------------------

Ni tab udh gw jamin bener...tpi klo slah maklumin aj yee..
by : GibQar''Intro: Em A C D 2X
     Em     A       C      D
E|------|-------|-------|-------|
B|------|---1---|---1---|---3---|
G|------|---2---|-------|-------|
D|--2---|---2---|---2---|---4---|
A|--2---|-------|---3---|---5---|
E|------|-------|-------|-------|

Maen ikuti kunci di atas…OK!

        Em                  A
hatiku bimbang namun tetap pikirkanmu
    C                D
Selalu slalu dalam hatiku
       Em             A
kumelangkah sejauh apapun itu
    C                D
Selalu kau didalam hatiku


Bass And guitar play:
   Em     A       C        D
AaaaAa...AaaAa.. AAaa.... AaaaAa


        Em                A
ku berjalan berjalan memutar waktu
     C                 D
Berharap temukan sisa hatimu
        Em               A
mengertilah kuingin engkau begitu
     C                  D
Mengerti kau didalam hatiku

REFF:
         G             D
tak bisakah kau menungguku
       Em                D
hingga nanti tetap menunggu
         G             D
tak bisakah kau menuntunku
     Em             D
menemani dalam hidupku

Solo:





e----------------------------------------------------------------|
B—10s12-12-------------------------------------------------------|
G----------12-12-11s12-12-11-7-7s9-9-7-7s11-9-7------------------|
D----------------------------------------------------------------|
A----------------------------------------------------------------|
E----------------------------------------------------------------|


----------12--10---------------------------------------------------------|
-10s12-12--------12-10s12-10s12-12-10------------------------------------|
--------------------------------------12-12-12-11s12-12-11-7-------------|
-------------------------------------------------------------------------|
-------------------------------------------------------------------------|
-------------------------------------------------------------------------|
s= slide


        Em                A
ku berjalan berjalan memutar waktu
     C                  D
Berharap temukan sisa hatimu
        Em               A
mengertilah kuingin engkau begitu
     C                  D
mengerti kau didalam hatiku

REFF

Em D C D 2X

 Em
OooOOooooooooooO
        A             E
tak bisakah kau menungguku
        F#              Em
hingga nanti tetap menunggu
         A             E
tak bisakah kau menuntunku
     F#             Em
menemani dalam hidupku..woop

Em D C D 2X

Kritik n saran silahakan testi ke fs gue decki@akatsuki.cfp
selamat mencoba...^_^ thanks buat chordfrenzy'

Itulah Chord Gitar/Kunci Gitar PETERPAN TAK BISAKAH, Semoga Chord Gitar/Kunci Gitar PETERPAN TAK BISAKAH cocok untuk kamu dan suaramu tentunya semoga Chord Gitar/Kunci Gitar PETERPAN TAK BISAKAH bermanfaat bagi kamu dan bisa dimainkan dengan lancar ya, dibawah ini kami menyediakan Chord Gitar/Kunci Gitar selain PETERPAN TAK BISAKAH Kami bisa pilih chord kunci gitar yang relate dengan PETERPAN TAK BISAKAH ataupun random chord yang tersedia dan bisa gunakan kolom pencarian untuk mencari Chord Gitar/Kunci Gitar yang kamu inginkan, semoga kami dapat menghadirkan Chord Gitar/Kunci Gitar yang lengkap, bagus dan terupdate untuk kamu jangan lupa untuk membagikan Chord Gitar/Kunci Gitar PETERPAN TAK BISAKAH, terimakasih.