Chord Gitar/Kunci Gitar MUSE PLUG IN BABY

Chord Gitar/Kunci Gitar MUSE PLUG IN BABY

'E---------------------------2h3p------------------------------------
B----------------3-----3-5-------5-3---------------5-----5-7^8^7-6-7
G---3-4-6--3-4-6---4-6--------------6--4-6-7--4-6-7--6-7------------
D-------------------------------------------------------------------
A-------------------------------------------------------------------
E-------------------------------------------------------------------

E-------------------------------------------------------------------
B---7--------7--9^10^9-7-6-7----------------------------------------
G----7-7---7-----------------7---7----------------------------------
D-------6-7--------------------7------------------------------------
A-------------------------------------------------------------------
E-------------------------------------------------------------------


G                     D      F#
  I have exposed your lies baby
                     G
The underneath is no big surprise
             D             F#
Now it`s time for changing
               G        
And cleansing everything
               D
To forget your love

Bm (palm mute) 

G                Bm
  My plug in baby
            G
Crucify my enemies
                     Bm
When I`m tired of giving
G                 Bm
  My plug in baby
                         G
My underbroken virgin realities
           Bm
Tired of living


(repeat riff)


Don`t confused
Baby you`re gonna loose
Your own game
Change me
And replace the envying
To forget your love 

My plug in baby
Crucify my enemies
When I`m tired of giving
My plug in baby
My underbroken virgin realities 
Tired of living'

Itulah Chord Gitar/Kunci Gitar MUSE PLUG IN BABY, Semoga Chord Gitar/Kunci Gitar MUSE PLUG IN BABY cocok untuk kamu dan suaramu tentunya semoga Chord Gitar/Kunci Gitar MUSE PLUG IN BABY bermanfaat bagi kamu dan bisa dimainkan dengan lancar ya, dibawah ini kami menyediakan Chord Gitar/Kunci Gitar selain MUSE PLUG IN BABY Kami bisa pilih chord kunci gitar yang relate dengan MUSE PLUG IN BABY ataupun random chord yang tersedia dan bisa gunakan kolom pencarian untuk mencari Chord Gitar/Kunci Gitar yang kamu inginkan, semoga kami dapat menghadirkan Chord Gitar/Kunci Gitar yang lengkap, bagus dan terupdate untuk kamu jangan lupa untuk membagikan Chord Gitar/Kunci Gitar MUSE PLUG IN BABY, terimakasih.