Chord Gitar/Kunci Gitar J ROCKS SEMAKIN SENDIRI [TAB]

Chord Gitar/Kunci Gitar J ROCKS SEMAKIN SENDIRI [TAB]

'Guitar Solo


e||-------------------------------------------------------------------||
B||-------------------------------------------------------------------||
G||-------------------------------------------------------------------||
D||------------2-4-5-5/7--5-4---1---1-2---9-7-9----7-5-7--7-7/9-5-----||
A||----2-3-3/5--------------------2-------------5---------------------||
E||--3----------------------------------------------------------------||

e||---------------------------------------------------------------------------------||
B||----------------------15-13-12~-15-15/17--12-12-10-10~--10-12-13-15/17-15/17-15~-||
G||-12~---11-12-12/14-12------------------------------------------------------------||
D||---------------------------------------------------------------------------------||
A||---------------------------------------------------------------------------------||
E||---------------------------------------------------------------------------------||

e||-------------------------------------------------------------||
B||-------------------------------------------------------------||
G||----------14-12/14-14/16-12--11-12----4-5-5/7-/16-/16~-14~---||
D||-5-7-7/9-----------------------------------------------------||
A||-------------------------------------------------------------||
E||-------------------------------------------------------------||

e||-------------------------------------------------||
B||-------------------------------------------------||
G||-9-11-12-9-12--16--16p14-14p12-12p11-11p19-9p7---||
D||-------------------------------------------------||
A||-------------------------------------------------||
E||-------------------------------------------------||
                   

e||-------------------------------------12-14/15-14/15-14~-||
B||-15-14/15-13-12h13-10-12/13~---13-15--------------------||
G||--------------------------------------------------------||
D||--------------------------------------------------------||
A||--------------------------------------------------------||
E||--------------------------------------------------------||


e||--3~---||
B||--3~---||
G||--0~---||
D||--0~---||
A||--2~---||
E||--3~---||


kritik & saran : YM/FS : aldoputrasetia1992@yahoo.co.id [^_^]''Guitar Solo

d||-------------------------------------------------------------------||
A||-------------------------------------------------------------------||
F||-------------------------------------------------------------------||
C||------------2-4-5-5/7--5-4---1---1-2---9-7-9----7-5-7--7-7/9-5-----||
G||----2-3-3/5--------------------2-------------5---------------------||
D||--3----------------------------------------------------------------||

d||---------------------------------------------------------------------------------||
A||----------------------15-13-12~-12-15/17--12-12-10-10~--10-12-13-15/17-15/17-15~-||
F||-12~---11-12-12/14-12------------------------------------------------------------||
C||---------------------------------------------------------------------------------||
G||---------------------------------------------------------------------------------||
D||---------------------------------------------------------------------------------||

d||-------------------------------------------------------------||
A||-------------------------------------------------------------||
F||----------14-12/14-14/16-12--11-12----4-5-5/7-/16-/16~-14~---||
C||-5-7-7/9-----------------------------------------------------||
G||-------------------------------------------------------------||
D||-------------------------------------------------------------||

d||-------------------------------------------------------------------------------------12-14/15-14/15-14~-||
A||-------------------------------------------------15-14/15-13-12h13-10-12/13~---13-15--------------------||
F||-9-11-12-9-12--16--16p14-14p12-12p11-11p19-9p7----------------------------------------------------------||
C||--------------------------------------------------------------------------------------------------------||
G||--------------------------------------------------------------------------------------------------------||
D||--------------------------------------------------------------------------------------------------------||

d||--3~---||
A||--3~---||
F||--0~---||
C||--0~---||
G||--2~---||
D||--3~---||


By : Aldo
Friendster/Yahoo:aldoputrasetia1992@yahoo.co.id'

Itulah Chord Gitar/Kunci Gitar J ROCKS SEMAKIN SENDIRI [TAB], Semoga Chord Gitar/Kunci Gitar J ROCKS SEMAKIN SENDIRI [TAB] cocok untuk kamu dan suaramu tentunya semoga Chord Gitar/Kunci Gitar J ROCKS SEMAKIN SENDIRI [TAB] bermanfaat bagi kamu dan bisa dimainkan dengan lancar ya, dibawah ini kami menyediakan Chord Gitar/Kunci Gitar selain J ROCKS SEMAKIN SENDIRI [TAB] Kami bisa pilih chord kunci gitar yang relate dengan J ROCKS SEMAKIN SENDIRI [TAB] ataupun random chord yang tersedia dan bisa gunakan kolom pencarian untuk mencari Chord Gitar/Kunci Gitar yang kamu inginkan, semoga kami dapat menghadirkan Chord Gitar/Kunci Gitar yang lengkap, bagus dan terupdate untuk kamu jangan lupa untuk membagikan Chord Gitar/Kunci Gitar J ROCKS SEMAKIN SENDIRI [TAB], terimakasih.