Chord Gitar/Kunci Gitar J ROCKS LEPASKAN DIRIKU [TAB]

Chord Gitar/Kunci Gitar J ROCKS LEPASKAN DIRIKU [TAB]

'E|-17---16h17p16-14-16----19-----------19/21-19----------19-------23-23/24---|
B|---------------------17-----17-16-17------------17-17------17--------------|
G|---------------------------------------------------------------------------|
D|---------------------------------------------------------------------------|
A|---------------------------------------------------------------------------|
E|---------------------------------------------------------------------------|

E|-17-16---------------------------------|
B|-------17------------------------------|
G|----------16-14-13---------------------|
D|-------------------14------------------|
A|----------------------14-12-11-12-11---|
E|---------------------------------------|

E|-------------------------16-16-16h17-16-|
B|-------------------16-19----------------|
G|----------------17----------------------|
D|----------16-18-------------------------|
A|----15-18-------------------------------|
E|-16-------------------------------------|

E|------------------------19-19-19-19--21-21-21-21-23-23-23-23--24-24-24-24-|
B|-----------19/21---19-----------------------------------------------------|
G|------18------------------------------------------------------------------|
D|-19-----------------------------------------------------------------------|
A|--------------------------------------------------------------------------|
E|--------------------------------------------------------------------------|

E|-----------------------------------------------------------------------|
B|---------------------------------------------------------11--13--------|
G|---------------------10--12--13--------------10--12--13----------------|
D|---------10--11--13--------------10--11--13-----------------------13~~~|
A|-11--13----------------------------------------------------------------|
E|-----------------------------------------------------------------------|'

Itulah Chord Gitar/Kunci Gitar J ROCKS LEPASKAN DIRIKU [TAB], Semoga Chord Gitar/Kunci Gitar J ROCKS LEPASKAN DIRIKU [TAB] cocok untuk kamu dan suaramu tentunya semoga Chord Gitar/Kunci Gitar J ROCKS LEPASKAN DIRIKU [TAB] bermanfaat bagi kamu dan bisa dimainkan dengan lancar ya, dibawah ini kami menyediakan Chord Gitar/Kunci Gitar selain J ROCKS LEPASKAN DIRIKU [TAB] Kami bisa pilih chord kunci gitar yang relate dengan J ROCKS LEPASKAN DIRIKU [TAB] ataupun random chord yang tersedia dan bisa gunakan kolom pencarian untuk mencari Chord Gitar/Kunci Gitar yang kamu inginkan, semoga kami dapat menghadirkan Chord Gitar/Kunci Gitar yang lengkap, bagus dan terupdate untuk kamu jangan lupa untuk membagikan Chord Gitar/Kunci Gitar J ROCKS LEPASKAN DIRIKU [TAB], terimakasih.