Chord Gitar/Kunci Gitar GUNS N ROSES WELCOME TO THE JUNGLE

Chord Gitar/Kunci Gitar GUNS N ROSES WELCOME TO THE JUNGLE

'A
Welcome to the jungle
We got fun and games
We got everything you want
Honey we know the names

E
We are the people that you find
Whatever you may need
If you got the money honey
We got your disease

C
In the jungle
D
Welcome to the jungle
E
Watch it bring you to your knees, knees
I wanna watch you bleed


A 
welcome to the jungle
We take it day by day
If you want your gonna bleed
But its the price you pay

E
And your a very sexy girl
Thats very hard to please
You can taste the bright lights
But you wont get them for free

C
In the jungle
D
Welcome to the jungle
E
Fell my, my, my serpentine
B                         E
I,i wont to hear you screem

A
Welcome to the jungle
It gets worse hear everyday
Ya learn to live like an animal
In the jungle were we play

E
You got a hunger for what you see
You take it eventually
You can anything you want
But you better not take it from me

C
In the jungle 
D
welcome to the jungle
E
Watch it bring you to your knees, knees
D G D G
I wanna watch you bleed

D                     G            
And when you`re high you never
D                     G        
Ever want to be down
F   G    F    G    F   A     E  E7/9 E E7/9 C#m B C#m
So down, so down ,so down, yeah

B E B E B A F# B E

E
You know were you are 
Your in the jungle, baby

F# F F# G A G# A A#
Your gonna die

C
In the jungle 
D
welcome to the jungle
E
watch it bring you to your knees, knees
C
In the jungle
D 
welcome to the jungle
E
fell my, my, my, my serpentine
C
In the jungle
D 
welcome to the jungle
E 
Watch it bring you to your knees, knees
C
In the jungle
D
Welcome to the jungle
E
watch it bring to you
D   Bb    A  G E A  G E  E7/9
Its gonna bring you down, ha!''Intro

--------------------------------------------------------------
---9---------------7------------------------------------------
--------------------------------------------------5---6---7---
-----------------------------7\------3------------------------

--------------------------------------------------------------------
---7---8---9---9---9---9---9---9---9---9---9---9---9---9---9---9----
--------------------------------------------------------------------
--------------------------------------------------------------------


--------------------------------------------------------------------
---9---9---7---7---7---7---7---7---7---7---7---7---7---7---7---7----
--------------------------------------------------------------------
--------------------------------------------------------------------


--------------------------------------------------------------------
---7---6------------------------------------------------------------
-----------7---7---7---7---7---7---7---7---7---7---7---7---7--------
--------------------------------------------------------------------


--------------------------------------------------------------------
--------------------------------------------------------------------
------7-------5-----------------------------------------------------
----------7----------5------------7---7---7---7---7---7---7---7-----


----------------------------------
-----------7---8---9--------------
-------9-------------------7------
---7-/-----------------0----------


|--------------------------------------------|
|*------------------------------------------*|
|*------------------------------------------*|
|-----5---5---3---5---5---5---3---2---0------|

repeat twice, then


------------------------------------
------------------------5---4---5---
------------------------------------
----5---5---3---5---5---------------

~~~~~~~~~~~~~~~~~~~~~~~~~~~~~~~~~~~~~~~~~~~~~~~~~~~~~~~~~~~~~~~


Verse


|----------------------------------------------------|
|*--------------------------------------------------*|
|*--------------------------------------------------*|
|-----5---5---3------5---5------5---3------2---0-----|

play 3 times, then


-----------------------------------------------
-----------------------------------------------
--------------------------------------------5--
---5---5---3------5---5------5---3------5------


----------------------------------------
----------------------------------------
---7------5------x---7---7---5---4------
-------------------------------------7--


----------------------------------------
----------------------------------------
---7---7---5---x---7---5---5---4--------
-----------------------------------7----



---------------------------------------
---------------------------------------
---7---7---5---x---7---x---5---4-------
-----------------------------------7---
if you got the money honey...


---------------------------------------
---------------------------------------
---7---7---5---x---7---5---5---7-------
-----------------------------------7---


--------------------------------------------------------------------
--------------------------------------------------------------------
--------------------------------------5---5-----5---5---5-----------
---8---8---8---8---8---0---3------0-------------------------0-------


-------------------------------------------------------------------------
-------------------------------------------------------------------------
---7---7---5-----------------------------7---7---------------------------
---------------6---6------5---3---0--------------5---6---6---5---3---0---


--------------------------------
--------------------------------
--7---7-------------------------
----------5---6---6---5---3---0-


-------------------------------
-------------------------------
------7---5--------------------
--------------6---5---3---4----
I wanna watch you bleed


~~~~~~~~~~~~~~~~~~~~~~~~~~~~~~~~~~~~~~~~~~~~~~~~~~~~~~~~~~~~~~~~~~~~~~~~~~~



------------------------------------------------
---------------------------------------7---7----
------------------------------------------------
---6/7------6/7------6/7------6/7---------------
I wanna hear you scream!


~~~~~~~~~~~~~~~~~~~~~~~~~~~~~~~~~~~~~~~~~~~~~~~~~~~~~~~~~~~~~~~~~~~~~~~~~~~~

1st guitar solo

--------------------------------------------------------------
---------------------------------------------------5----------
-------4/5-----------7-------7-------4/5----------------------
---0---------0---0-------0-------0---------0---0-------2---0--

--------------------------------------------------------------
--------------------------------------------------------------
---0---4/5-----------7-------7-------4/5----------------------
-------------0---0-------0-------0---------0---0---3\2---0----


--------------------------------------------------------------
---------------------------------------------------5-------5--
---0---4/5-----------7-------7-------4/5----------------------
-------------0---0-------0-------0---------0---3-------3------


-------------------------------------------------------------
-------------------------------------------------------------
-------4/5-----------7----------4/5--------------------------
---0---------0---0-------0------------0---3---3---2---0------

~~~~~~~~~~~~~~~~~~~~~~~~~~~~~~~~~~~~~~~~~~~~~~~~~~~~~~~~~~~~~~~~~~~~~~~~~~~~


-------------------------------
-------------------------------
---7---5-----------------------
-----------6------5---3---0----
I`m gonna watch you bleed


~~~~~~~~~~~~~~~~~~~~~~~~~~~~~~~~~~~~~~~~~~~~~~~~~~~~~~~~~~~~~~~~~~~~~~~~~~~~


----------------------------------------------------------------------
---------------------------5------------------------------5-----------
---5---------------------------------5------------------------3---4---
-------------------3---3--------------------------3---3---------------


-----------------------------------------------------------------------
----------------3---4------5---5---------------------------------------
---5-------------------------------0---3---4---5---0---5---3---2-------
-------------------------------------------------------------------0---


--------------------------------------------------------------------
--------------------------------------------------------------------
--------------------------------------------------------------------
---3---3---3---3---3-----1------3---3---3---3---3----1--------------


--------------------------------------------------------------------
-----------------------------------------------5---5---5---5--------
--------------------------------------------------------------------
---3---3---3---3---3----1------5---5---5---5------------------------


--------------------------------------------------------------------
---------------------------------------------------5----------------
-------4/5-----------7-------7-------4/5----------------------------
---0---------0---0-------0-------0---------0---3-------2---0--------
Yeah!


--------------------------------------------------------------------
-------------------------------------------------5---5---4----------
-------4/5-----------7---7-----------4---5--------------------------
---0---------0---0-----------0---0-----------0---------------7---8--


~~~~~~~~~~~~~~~~~~~~~~~~~~~~~~~~~~~~~~~~~~~~~~~~~~~~~~~~~~~~~~~~~~~~~~~~~~~~~~

2nd guitar solo


|----------------------------------------------------------------------|
|*--------------------------------------------------------------------*|
|*--------------------------------------------------------------------*|
|-----9---7---9---7---9---7---9---7------5---7---5---7---5---7---0-----|

play twice, then

--------------------------------------------------------------------
--------------------------------------------------------------------
--------------------------------------------------------------------
------9---7---9---7---9---7---9---7------5---7---0---7---0---3---0--


--------------------------------------------------------------------
--------------------------------------------------------------------
------------------7-------------------------------------------------
------0---0---0-------0---0---0---0---0---0---0---0---4---5---7-----


------------------------------------------------------------------
--------------------------------------------------9---7-----------
----------------------------------------------------------9---7---
------7---7---0---7---5---6---7---0---7---0---7-------------------


-----------------------------------------------------------------
-----------------------------------------------------------------
------7---5-------5---7---0---7------7---5-----------------------
--------------7------------------------------7---4---5---6---7---


----------------------------------------------------------
------------------------------------------9---------------
------------------------------------------------------7---
------7---7-------7---7---0---7---7---7-------0---7-------


-----------------------------------------------
----------------------------------2---3--------
-----------------------------------------------
------2---2---2---2---2---2---2----------------


-----------------------------------------------------------
---4---3---4---4---4---2-----------------------------------
---------------------------4---0------2------------2/------
-----------------------------------------------------------


-------------------------------------------------------------------
---9---------------------------------------------------------------
-------------------------------------------------------------------
-------------------------------------------------------------------


---------------------------------------------
---------------------------------------------
---------------------------------------------
------0---0---2---2---3---3---2---3---4------


------------------------------------------------------------------
------------------------------------------------------------------
------------------------------------------------------------------
---3---3---2---2---3---3---4---5------5---4---4---5---5---6---7---


----------------------------------------------------------------
----------------------------------------------------------------
---7---7---7---7---6---6---6---5---5---4---4---3---3---2---2----
----------------------------------------------------------------


----------------------------------------------------------------
----------------------------------------------------------------
---7---7---7---7---6---6---6---5---5---4---4---3---3---2---2----
----------------------------------------------------------------


~~~~~~~~~~~~~~~~~~~~~~~~~~~~~~~~~~~~~~~~~~~~~~~~~~~~~~~~~~~~~~~~~~~~~~~~~~


|---------------------------------------------------------------------|
|*-------------------------------------------------------------------*|
|*---7---7---7---7---6---6---6---5---5---5---4---4---3---3---2---2---*|
|---------------------------------------------------------------------|

repeat 8 times


~~~~~~~~~~~~~~~~~~~~~~~~~~~~~~~~~~~~~~~~~~~~~~~~~~~~~~~~~~~~~~~~~~~~~~

------------------------------------------------------------------
------------------------------------------------------------------
------------------------------------------------------------------
------2---1---2---3---5---4---5---6---0---8---8---8---0---3---0---


-----------------------------------------------------------
-----------------------------------------------------------
---5---5---5---5---5---5---7---7---5-----------------------
---------------------------------------x---6---5---3---0---


---------------------------------------------------------------
---------------------------------------------------------------
---7---7---5-----------------------3---3---3---3---------------
---------------x---6---5---3---0-------------------0---3---0---


|------------------------------------------------------------|
|*----------------------------------------------------------*|
|*---5---5---5---5---5---0---7---7---5----------------------*|
|----------------------------------------x---6---5---3---0---|

play twice



-----------------------------------------------------------
-----------------------------------------------------------
---3---3---3---3---------------5---5---5---5---5---0-------
-------------------0---3---0-------------------------------


|-------------------------------------|
|*-----------------------------------*|
|*---7---7---5-----------------------*|
|----------------x---6---5---3---0----|

play twice



-----------------------------------------------------------
-----------------------------------------------------------
---3---3---3---3---3---------------5---5---5---5---5---0---
-----------------------0---3---0---------------------------


--------------------------------------------------------------------
--------------------------------------------------------------------
---7---7---7---5----------------------------------7-------------------------
-------------------6---5---3---0---5---3---0------0----------------------------
                It`s gonna bring you down

Guns N Roses - Welcome to the Jungle
tabbed for bass by Andrew Goktepe''Tuning: Eb Ab Db Gb Bb Eb

Intro

Guitar 1
E|----------------------|
B|--------------0-------|
G|-4==4=======4===4-----|
D|----------------------|
A|----------------------|
E|----------------------|

E|------------------------------------------|
B|----0-------0------0-------0------0----0--|
G|-4----4--2----2---------------------------|
D|-----------------4----4--2----2-0---------|   x6
A|-------------------------------------2----|
E|------------------------------------------|

E|--------------------------|
B|--------------------------|
G|--444-222-----------------|
D|----------444-222-00------|   x3
A|---------------------2-2--|
E|--------------------------|
 
E|----------------------------------------------------------------------|
B|----------------------------------------------------------------------|
G|---7--------4---4---4---4---4---4---4---4---4---4---4---4---4---4---4-|
D|---7---7----4---4---4---4---4---4---4---4---4---4---4---4---4---4---4-|
A|---5---7----2---2---2---2---2---2---2---2---2---2---2---2---2---2---2-|
E|-------5--------------------------------------------------------------|
Pm            .   .   .   .   .   .   .   .   .   .   .   .   .   .   .

E|--------------------------|---------------------------|
B|--------------------------|---------------------------|
G|--------------------------|---------------------------|
D|--------------------------|---------------------------|
A|-7--7--5--7--7--7-5--4--2-|-7--7--5--7--7--7--5--4--2-|
E|-5--5--3--5--5--5-3--2--0-|-5--5--3--5--5--5--3--2--0-|

e|----------------------------------|
B|----------------------------------|
G|-7brp5---7-5----------------------|
D|-------7-----7-5------------------|
A|-----------------7-6-5p3-5p3------|
E|-----------------------------5p3--|


Guitar 2
E|------------------------------------7--7/5--5-0---------|
B|------------------------------------7--7/5--5-0---7--5--|
G|------------7-9-9b---7b---------------------------7--6--|
D|---7h9--9-----------------7h99/2-----------------7--7--|
A|-----------------------------------------------------0--|
E|--------------------------------------------------------|

E|------------------------------------5--5------------|
B|-----------------------3---5-----5b----5b---3-------|
G|----------------2--4----------------------------4\--|
D|---------2--4---------------------------------------|
A|--2--4----------------------------------------------|
E|----------------------------------------------------|

E|-------------------------|--------------------------|
B|-------------------------|--------------------------|
G|--2------2--2--0---------|--2-x-x-----2-2--0--------|
D|--2------2--2--0---------|--2-x-x-----2-2--0--------|
A|--0------0--0----------0-|--0-x-x-----0-0---------0-|
E|----3b-----------3--2----|--------3b--------3--2----|
Pm         .  .    .  .

Guitar 2
E|--------------------x--5--------------------|------------------------|
B|--------------------------------------------|------------------------|
G|---2-----------x----------------------------|--2-x-x-----2-2--0------|
D|---2-----------x----------------------------|--2-x-x-----2-2--0------|
A|---0-----0-----x------------------3p0-------|--0-x-x-----0-0-------0-|
E|----------------------------------------2---|--------3b--------3-2---|
 
Verse

Guitar 1
E|------------------------------|---------------------------|
B|------------------------------|---------------------------|
G|------------------------------|---------------------------|
D|------------------------------|---------------------------|    x2
A|------------------------------|---------------------------|
E|-5--5---3---5--5--5-3--2--0-0-|-5--5--3--5--5--5--2--0--0-|
Pm .  .       .  .  .       . .   .  .     .  .  .     .  .

E|--------------------------|-------------------------------|
B|--------------------------|-------------------------------|
G|----------x---------------|-------------------------------|
D|--9--9--7-x-9--9--7--6--4-|-------------------------------|    x2
A|--7--7--5-x-7--7--5--4--2-|-------------------------------|
E|--------------------------|-------------------------------|


Guitar 2 
E|-------------------------|--------------------------|
B|-------------------------|--------------------------|
G|--2------2--2--0---------|--2-x-x-----2-2--0--------|
D|--2------2--2--0---------|--2-x-x-----2-2--0--------|    x2
A|--0------0--0----------0-|--0-x-x-----0-0---------0-|
E|----3b-----------3--2----|--------3b--------3--2----|
Pm         .  .    .  .

E|--------------------------|--------------------------|
B|--------------------------|--------------------------|
G|--9--9--7-x-9--9----------|--2-x-x-----2-2--0--------|
D|--9--9--7-x-9--9--7--6--4-|--2-x-x-----2-2--0--------|    x2
A|--7--7--5-x-7--7--5--4--2-|--0-x-x-----0-0---------0-|
E|--------------------------|--------3b--------3--2----|

Chorus

Guitar 1
E|--------------------------------------| 
B|--------------------------------------| 
G|--------5-------------------------7---| 
D|--------5-------------------------7---| 
A|--------3-------------------------5---| 
E|--------------------------------------|

E|-------------------------| 
B|-------------------------| 
G|-------------------------|
D|-------------------------|   x3
A|--7--7--5----------------| 
E|-----------66--5--3--0--|

Guitar 2
E|----------------------------------------------------------------| 
B|----------------------------------------------------------------| 
G|--------5-------------------------7-----------------------------| 
D|--------5-------------------------7-----------------------------| 
A|--------3----2--------------------5------4----------------------| 
E|------------------5------3-----------------------7---------5----| 

E|-------------------------------| 
B|-------------------------------| 
G|--9--9-------------------------|
D|--9--9-------------------------|   x3
A|--7--7--5----------------------| 
E|-----------6--6--5--5--3--0----| 

E|-----------------------------------------| 
B|-----------------------------------------| 
G|-----------------------------------------| 
D|-----------------------------------------| 
A|--------7----5---------------------------| 
E|-----------------------6------5---3---4--| 

Random Fills

Fill 1 (1:09)
Guitar 3 studio, Guitar 1 live
E|---------------------------------------|
B|---------------------------------------|
G|---------------------------------------|
D|----------------7p5--7-5---------------|
A|--------------------------7-65/3------|
E|-5--5--5---3-----------------------5p3-|
Pm .  .


Fill 2 (1:25)
Guitar 3 studio, Guitar 1 live
E|-12//--|
B|-12//--|
G|-12//--|
D|-------|
A|-------|
E|-------|

Fill 3  (1:31, 1:56)
Guitar 3 studio, Guitar 1 live
E|----------------------------------------------|
B|----------------------------------------------|
G|----------------------------------------------|
D|-------------------------------------7p5-5/6-|
A|----------------3h4---5--------3h4------------|
E|-5---5---5---5-----------5--5-----------------|
Pm .   .   .   .


Fill 4 (1:52)
Guitar 3 studio, Guitar 1 live
E|--------------------------------------|
B|--------------------------------------|
G|--------------------------------------|
D|-7p5----------------------------------|
A|-----7-6---5-765-5b-5-3---5---3h4---|
E|--------------------------5---5-------|

First Solo

Guitar 1
E|-------|
B|-------|
G|-----7-|
D|-9-9-7-|
A|-9-9-7-|
E|-7-7---|

E|---------------------------------------|
B|-----------------------12----------12~-|
G|---12/13---x-13----13~-12--13-x--x12~-|
D|---11/12---x-14----14~-----12-x--x12~-|
A|---------------------------------------|
E|-0-------------------------------------|

E|---------------------------------------------15--|
B|---------------15--x-15~----11-/-12-/-x-x--15--|
G|---12/13-------13--x-13~----x--/-x--/-x--x--13--|
D|---11/12-------14--x-14~---11-/-12-/-x--x------|
A|-------------------------------------------------|
E|-0-------0--0------------------------------------|
Pm .          .      .

E|---------19b--r19-18-17b--r-15-16-----|
B|------17--------------------------15~-|
G|-5/18---------------------------------|
D|--------------------------------------|
A|--------------------------------------|
E|--------------------------------------|

E|--------------------------------------------------------------|
B|-15br-15-12---------------------------------------------------|
G|------------14br-br-p12-14-12---------------------------------|
D|------------------------------14-12---------------14-13-12//--|
A|-------------------------------------14-13-12/10--------------|
E|--------------------------------------------------------------|

Guitar 2
E|-7--77------|
B|-7--77-7----|
G|------------|
D|------------|
A|------------|
E|------------|

E|---------------------------------------------------|
B|---------------------------------------------------|
G|---------------9--------9/-------------------------|
D|----9--x--x----9-----9-9/-------------------------|
A|----7--x--x----7-----7-7/-------------------------|
E|-0--0-------0-----0--------0--0-0-0-0-3p2p0/12-----|

E|---------------------------------------------------|
B|---------------------------------------------------|
G|---------------9--------9/-------------------------|
D|----9--x--x----9-----9-9/-------------------------|
A|----7--x--x----7-----7-7/-------------------------|
E|-0--0-------0-----0--------0--0-0-0-0-3p2p0--0-----|

E|------------------------------------------------|
B|------------------------------------------------|
G|-------------7--9-----9---------7------7---12~--|
D|-------9-----7--9-----9---------7------7---12~--|
A|-------7------------------------7------7---10~--|
E|-0--0-----0--------0--------0-----0-------------|

E|---------------------------------------------------|
B|---------------------------------------------------|
G|-7--8--9--7--8--9--7--8----9-----7--8---9---9---9--|
D|-7--8--9--7--8--9--7--8----9-----7--8---9---9---9--|
A|-5-6-7-5-6-7-5-6----7-----5--6---7---7---7--|
E|---------------------------------------------------|


Bridge

Guitar 1
E|-2-------3-------2--------3----------------3--------2-------|
B|-3-------3-------3--------3------7---------3--------3-------|
G|-2---6---0----6--2---6----0---6----7---7---0---6----2---6---|
D|-0---5---0----5--0---5----0---5------7-----0---5----0---5---|
A|-0-------x-------0--------x----------------x--------0-------|
E|---------3----------------3----------------3----------------|

E|----------------------------------------------------------|
B|----------------------------------------------------------|
G|----------------------------------------------------------|
D|-5-5-5-5-5-x-x-3----5-5-5-5-5-5/8-3----5-5-5-5-5-3----7---|
A|-5-5-5-5-5-x-x-3----5-5-5-5-5-5/8-3----5-5-5-5-5-3----7---|
E|-3-3-3-3-3-x-x-1----3-3-3-3-3-3/6-1----3-3-3-3-3-1----5---|
Pm   . .


Guitar 2
e|-------------------------------------------------------------------|
B|-7------------7-8p7---------13p12-----7--------13p12------7-------|
G|-7--5--12--5--7-----------12-----------7--5--12-----------7---10--|
D|-7-----12-----7-----7/10--12-----12p10-7------12-----12p10-7----8--|
A|-5-----10-----5-----------10-----------5------10-----------5-------|
E|-------------------------------------------------------------------|

E|------------------------------------------------------------------|
B|-12-12-12-12-12-10-----------------------12-12-12-12-12-10--------|
G|-12-12-12-12-12-10---12-12-12-12-12-10---12-12-12-12-12-10---14---|
D|-12-12-12-12-12-10---12-12-12-12-12-10---12-12-12-12-12-10---14---|
A|-10-10-10-10-10-8----10-10-10-10-10-8----10-10-10-10-10-8----12---|
E|------------------------------------------------------------------|


Pre-solo:

Guitar 1
E|-------------------------------------------12---------------------------|
B|-15b=======r-15b-15b-15b=======r-15-11/12-----15-12----------15b-15-----|
G|----------------------------------------------------15-14-12------------|
D|------------------------------------------------------------------------|
A|------------------------------------------------------------------------|
E|-------------------------------------------------------------------12/0-|

Guitar 2
E|------------------------------------------------------------------------| 
B|------------------------------------------------------------------------| 
G|-------6/7-------------9-------9-----9---6/7------------------12---12---| 
D|-------5/6-------------9-------9-----9---5/6------------------12---12---| 
A|------------------------------------------------------------------------| 
E|---0---------0----0---------0-------------------0-------0---------------| 

E|------------------------------------------------------------------------| 
B|------------------------------------------------------------------------| 
G|-------6/7-------------9-------9-----9---6/7------------------12---12---| 
D|-------5/6-------------9-------9-----9---5/6------------------12---12---| 
A|------------------------------------------------------------------------| 
E|---0---------0----0---------0-------------------0-------0---------------| 

Solo 2: 

Guitar 1
E|-------------------------------------------------------------------------| 
B|---------------------------------------------------12b~--12br-----------| 
G|---------------------------9b------11br-11br/9b---11b~---11br/9---------| 
D|-------------------9b/11-------11--------------------------------11p9/6--| 
A|------7----9fb/11--------------------------------------------------------| 
E|--9------9---------------------------------------------------------------| 


E|--------0-0-0-0----------------------------------------------------------| 
B|---5----5-3-2-0-2br-0-2-0---0------0===0--0--0--0------------------------| 
G|-6---6----------2br-0-2-0p1-1--2-/-4===4--2--2--1--4---------------------| 
D|------------------------------------------------------4---2brp0--2-0-4/-| 
A|-------------------------------------------------------------------------| 
E|-------------------------------------------------------------------------|  
 
E|----------------------------------------------| 
B|--15-15b--15b-------------------------14\12---| 
G|--------------14b-14b--14bp12-----------------| 
D|-------------------------------14-12--14\12---| 
A|----------------------------------------------| 
E|----------------------------------------------| 

E|-------------------------------------------| 
B|-------------------------------------------| 
G|--6b--4------------------------------------| 
D|---------6b---4----------------------------| 
A|-----------------4---2---------------------| 
E|------------------------4b----02~~~~~~~---| 


Guitar 2
E|------------------------------------------------------------------------|
B|------------------------------------------------------------------------|
G|-6-6-6-6-6---4------4-----4------4--5----6-6-6-6-6----4-----4-4-4-------|
D|-6-6-6-6-6-2-4------4-----4------4--5----6-6-6-6-6--2-4-----4-4-4-------|
A|-4-4-4-4-4---2------2-----2------2-3----4-4-4-4-4----2-----2-2-2-------|
E|-----------------0-----0-------0-------------------------0---------0-0--|
Pm   . . . . .     .  .  .  .    . .  .      . . . .  .    .  . . .  . .

e|--------------------------------------------------------------------------|
B|--------------------------------------------------------------------------|
G|-----------------------------------4---4-4-4-4-4-4-4-4-4-4-4-4---2--------|
D|-2-2-2-2-2-2-2-2-2-2-2-2-----------4---4-4-4-4-4-4-4-4-4-4-4-4---2-----2--|
A|-2-2-2-2-2-2-2-2-2-2-2-2-----------2---2-2-2-2-2-2-2-2-2-2-2-2---0-----2--|
E|-0-0-0-0-0-0-0-0-0-0-0-0---0---0------------------------------------3-0--|
Pm   . . . . . . . . . . .                . . . . . . . . . . . .

E|------------------------------------------------------------------|
B|------------------------------------------------------------------|
G|-9--7-----7--9-----9-------------------4--4--4-4-----4-4-4-4-4----|
D|-9--7-----7--9-----9--9--7-------------4--4--4-4-----4-4-4-4-4----|
A|-7--7--x-----------7--7--7-------0--1--2--2--2-2-----2-2-2-2-2----|
E|---------------0---0-------03/4------------------0---------------|

E|------------------------------|
B|------------------------------|
G|------------------------------|
D|--------4--4--4--4--4--4-4---|
A|--------4--4--4--4--4--4--4---|
E|-12/----2--2--2--2--2--2--2---|


Breakdown

Guitar 1
E|------------(34)-(31)-(30)--(28)(26)(24)-//-(19)///-------------------|
B|---------------------------------------------------------12----12---------|
G|-4/////--x-----------------------------------------------14b---14b--------|
D|-4/////--x----------------------------------------------------------------|
A|-2/////--x----------------------------------------------------------------|
E|--------------------------------------------------------------------------|

E|---------------------------|
B|---------------------------|
G|---------------------------|
D|-4--3--4--5---7--6--7--8---|
A|-4--3--4--5---7--6--7--8---|
E|-2--1--2--3---5--4--5--6---|

Guitar 2
E|-------------------------------------------------------------------|
B|-------------------------------------------------------------------|
G|-------------------------------------------------------------------|
D|---------------------------------5-5-5-5-4-4-4-3-3-3-2-2-1-1-0-0---|
A|-7-7-7-6-6-6-5-5-5-4-4-3-3-2-2---7-7-7-7-6-6-6-5-5-5-4-4-3-3-2-2---|
E|-------------------------------------------------------------------|

E|--------------------------------------------------------------------|
B|--------------------------------------------------------------------|
G|--------------------------------------------------------------------|
D|-5-5-5-5-4-4-4-3-3-3-2-2-1-1-0-0---5-5-5-5-4-4-4-3-3-3-2-2-1-1-0-0--|
A|-7-7-7-7-6-6-6-5-5-5-4-4-3-3-2-2---7-7-7-7-6-6-6-5-5-5-4-4-3-3-2-2--|
E|--------------------------------------------------------------------|

E|----------------------------------------------------------------------|
B|----------------------------------------------------------------------|
G|----------------------------------------------------------------------|
D|-6-6-6-65-5-5-4-4-4-3-3-2-2-1-1----6-6-6-65-5-5-4-4-4-3-3-2-2-1-1---|
A|-7-7-7-7-6-6-65-5-5-4-4-3-3-2-2----7-7-7-7-6-6-65-5-5-4-4-3-3-2-2---|
E|----------------------------------------------------------------------|

E|----------------------------------------------------------------|
B|----------------------------------------------------------------|
G|----------------------------------------------------------------|
D|--6-6-6-65-5-5-4-4-4-3-3-2-2-1---6-6-6-65-5-5-4-4-4-3-3-2-2-1-|
A|--7-7-7-6-6-65-5-5-4-4-3-3-2-2---7-7-7-6-6-65-5-5-4-4-3-3-2-2-|
E|----------------------------------------------------------------|

E|---------------------------|
B|---------------------------|
G|---------------------------|
D|-4--3--4--5---7--6--7--8---|
A|-4--3--4--5---7--6--7--8---|
E|-2--1--2--3---5--4--5--6---|

Final Chorus

Guitar 1
E|--------------------------------------||-------------------------| 
B|--------------------------------------||-------------------------| 
G|--------5-------------------------7---||-------------------------| 
D|--------5-------------------------7---||-------------------------|   x2 
A|--------3-------------------------5---||--7--7--5----------------|
E|--------------------------------------||-----------66--5--3--0--|

E|--------------------------------------||-------------------------| 
B|--------------------------------------||-------------------------| 
G|--------5-------------------------7---||-------------------------| 
D|--------5-------------------------7---||-------------------------|   x2 
A|--------3-------------------------5---||--7--7--5----------------|
E|--------------------------------------||-----------66--5--3--0--|

E|--------------------------------------||-------------------------| 
B|--------------------------------------||-------------------------| 
G|--------5-------------------------7---||-------------------------| 
D|--------5-------------------------7---||-------------------------|   x2 
A|--------3-------------------------5---||--7--7--5----------------|
E|--------------------------------------||-----------66--5--3--0--|

E|---------------------------||------------------------------------------3-| 
B|---------------------------||-9---7------------------------------------3-| 
G|--------5--------------7---||-9---7---7---6---4-------2---4------------1-| 
D|--------5--------------7---||-9---7---8---7---5---2---2---5---2--------2-|
A|--------3--------------5---||-7---5---8---7---5---0---0---5---2--------2-|
E|---------------------------||---------6---5---3---0-------3---0--------0-|

                                             Slowly detune low E string  ^

Guitar 2
E|-----------------------------------||-------------------------------|  
B|-----------------------------------||-------------------------------|  
G|----5--------------7---------------||--9--9-------------------------| 
D|----5--------------7---------------||--9--9-------------------------|   x2 
A|----3---2----------5---4-----------||--7--7--5----------------------|  
E|-----------5---3----------7----5---||-----------6--6--5--5--3--0----|  

E|-----------------------------------||-------------------------------|  
B|-----------------------------------||-------------------------------|  
G|----5--------------7---------------||--9--9-------------------------| 
D|----5--------------7---------------||--9--9-------------------------|   x2 
A|----3---2----------5---4-----------||--7--7--5----------------------|  
E|-----------5---3----------7----5---||-----------6--6--5--5--3--0----|  

E|-----------------------------------||-------------------------------|  
B|-----------------------------------||-------------------------------|  
G|----5--------------7---------------||--9--9-------------------------| 
D|----5--------------7---------------||--9--9-------------------------|   x2 
A|----3---2----------5---4-----------||--7--7--5----------------------|  
E|-----------5---3----------7----5---||-----------6--6--5--5--3--0----|  

E|-----------------------------------------|  
B|-----------------------------------------|  
G|----5-----------------7------------------| 
D|----5-----------------7------------------| 
A|----3---2-------------5----4-------------| 
E|-----------5---3---------------7----5----| 
  
E|------------------------------------------3-| 
B|-9---7------------------------------------3-| 
G|-9---7---7---6---4-------2---4------------1-| 
D|-9---7---8---7---5---2---2---5---2--------2-|
A|-7---5---8---7---5---0---0---5---2--------2-|
E|---------6---5---3---0-------3---0--------0-|




r  release
b  bend
/  slide
h  hammer-on
p  pull-off
~  vibrato
x  Mute note'

Itulah Chord Gitar/Kunci Gitar GUNS N ROSES WELCOME TO THE JUNGLE, Semoga Chord Gitar/Kunci Gitar GUNS N ROSES WELCOME TO THE JUNGLE cocok untuk kamu dan suaramu tentunya semoga Chord Gitar/Kunci Gitar GUNS N ROSES WELCOME TO THE JUNGLE bermanfaat bagi kamu dan bisa dimainkan dengan lancar ya, dibawah ini kami menyediakan Chord Gitar/Kunci Gitar selain GUNS N ROSES WELCOME TO THE JUNGLE Kami bisa pilih chord kunci gitar yang relate dengan GUNS N ROSES WELCOME TO THE JUNGLE ataupun random chord yang tersedia dan bisa gunakan kolom pencarian untuk mencari Chord Gitar/Kunci Gitar yang kamu inginkan, semoga kami dapat menghadirkan Chord Gitar/Kunci Gitar yang lengkap, bagus dan terupdate untuk kamu jangan lupa untuk membagikan Chord Gitar/Kunci Gitar GUNS N ROSES WELCOME TO THE JUNGLE, terimakasih.