Chord Gitar/Kunci Gitar DMASIV CINTA SAMPAI DISINI [TAB]

Chord Gitar/Kunci Gitar DMASIV CINTA SAMPAI DISINI [TAB]

'Intro :


--------------------------|---------------------------|
------5-5---5----5---5~---|------5-5---5----5---5~----|
----7-----7----7---7------|----7-----7----7---7-------|
--------------------------|---------------------------|
--------------------------|---------------------------|
--------------------------|---------------------------|


------------------------------------------------------|
-------5-5---5-----5h6-5------------------------------|
-----7-----7----7--------7-5---7s9-7~~----------------|
-----------------------------7------------------------|
------------------------------------------------------|
------------------------------------------------------|''Intro :


--------------------------|---------------------------|
------5-5---5----5---5~---|------5-5---5----5---5~----|
----7-----7----7---7------|----7-----7----7---7-------|
--------------------------|---------------------------|
--------------------------|---------------------------|
--------------------------|---------------------------|


------------------------------------------------------|
-------5-5---5-----5h6-5------------------------------|
-----7-----7----7--------7-5---7s9-7~~----------------|
-----------------------------7------------------------|
------------------------------------------------------|
------------------------------------------------------|'

Itulah Chord Gitar/Kunci Gitar DMASIV CINTA SAMPAI DISINI [TAB], Semoga Chord Gitar/Kunci Gitar DMASIV CINTA SAMPAI DISINI [TAB] cocok untuk kamu dan suaramu tentunya semoga Chord Gitar/Kunci Gitar DMASIV CINTA SAMPAI DISINI [TAB] bermanfaat bagi kamu dan bisa dimainkan dengan lancar ya, dibawah ini kami menyediakan Chord Gitar/Kunci Gitar selain DMASIV CINTA SAMPAI DISINI [TAB] Kami bisa pilih chord kunci gitar yang relate dengan DMASIV CINTA SAMPAI DISINI [TAB] ataupun random chord yang tersedia dan bisa gunakan kolom pencarian untuk mencari Chord Gitar/Kunci Gitar yang kamu inginkan, semoga kami dapat menghadirkan Chord Gitar/Kunci Gitar yang lengkap, bagus dan terupdate untuk kamu jangan lupa untuk membagikan Chord Gitar/Kunci Gitar DMASIV CINTA SAMPAI DISINI [TAB], terimakasih.